E-Chords
Darkthrone

Paragon Belial(Tabs)

Darkthrone

roll up this ad to continue

www.youtube.com/slayerule 
www.youtube.com/watch?v=qRpR4Ndv8tQ 



0:00 
------------------------------------------------------------------------------------------------------| 
------------------------------------------------------------------------------------------------------| 
------------------------------------------------------------------------------------------------------| 
-3---3-3-3-3-4---4-4-4-4------------------------------------------------------------------------------| 
-3---3-3-3-3-4---4-4-4-4------------------------------------------------------------------------------| 
-1---1-1-1-1-2---2-2-2-2------------------------------------------------------------------------------| 


0:26 
---------------------------------------------------------------------------------------------------------| 
---------------------------------------------------------------------------------------------------------| 
---------------------------5---5-5-5-5-5---5-5-5-5-------------------------------------------------------| 
-2---2-2-2-2-2---2-2-2-2---5---5-5-5-5-5---5-5-5-5---6---6-6-6-6---------------6---6-6-6-6---------------| 
-2---2-2-2-2-2---2-2-2-2---3---3-3-3-3-3---3-3-3-3---6---6-6-6-6-7-7-7-6-6-6---6---6-6-6-6-7-7-7-6-6-6---| 
-0---0-0-0-0-0---0-0-0-0-----------------------------4---4-4-4-4-4-4-4-4-4-4---4---4-4-4-4-4-4-4-4-4-4---| 



---------------------------------------------------------------------------------------------------------------| 
---------------------------------------------------------------------------------------------------------------| 
---------------------------------------------------------------------------------------------------------------| 
-4---4-4-4-4-4---4-4-4-4-4---4-4-4-4/13-13-13-12-12-12-9---9-9-9-9-9---9-9-9-9-9---9-9-9-9/13-13-13---12-12-12-| 
-4---4-4-4-4-4---4-4-4-4-4---4-4-4-4/13-13-13-12-12-12-9---9-9-9-9-9---9-9-9-9-9---9-9-9-9/13-13-13---12-12-12-| 
-2---2-2-2-2-2---2-2-2-2-2---2-2-2-2/11-11-11-10-10-10-7---7-7-7-7-7---7-7-7-7-7---7-7-7-7/11-11-11---10-10-10-| 


1:14 (let ring) 
--3------------------1--------------------------------------------------------------------------------| 
-----2------------------0--------2--3-----------------------------------------------------------------| 
--------0-----1~-----------0--------------------------------------------------------------------------| 
-----------2------------------2-----------------------------------------------------------------------| 
------------------------------------------------------------------------------------------------------| 
------------------------------------------------------------------------------------------------------| 


1:50                                 alternate ending 
---------------------------------------------------------1--------------------------------------------| 
------------------------------6-----------------------------0-----------------------------------------| 
--------------------4--3--0------4-----------------------------0--------------------------------------| 
----0h1-1----1--2-------------------5-----------------------------------------------------------------| 
------------------------------------------------------------------------------------------------------| 
-0---------0------------------------------------------------------------------------------------------| 


2:14 
------------------------------------------------------------------------------------------------------| 
------------------------------------------------------------------------------------------------------| 
-1-4-4-1-3---1-4-4-1-2--------------------------------------------------------------------------------| 
------------------------------------------------------------------------------------------------------| 
------------------------------------------------------------------------------------------------------| 
------------------------------------------------------------------------------------------------------| 


2:19 
------------------------------------------------------------------------------------------------------| 
--4-----3---------------------------------------------------------------------------------------------| 
-----4------------------------------------------------------------------------------------------------| 
------------------------------------------------------------------------------------------------------| 
------------------------------------------------------------------------------------------------------| 
------------------------------------------------------------------------------------------------------| 


3:31 
------------------------------------------------------------------------------------------------------| 
-------------------(back-and-fourth)------------------------------------------------------------------| 
--14b16r14---------14b16r14---------------------6b8r6-------------------------------------------------| 
------------------------------------------------------------------------------------------------------| 
------------------------------------------------------------------------------------------------------| 
------------------------------------------------------------------------------------------------------| 


3:43 
------------------------------------------------------------------------------------------------------| 
------------------------------------------------------------------------------------------------------| 
-----------4--4--0--0--2tr3---------------------------------------------------------------------------| 
--2--2------------------------------------------------------------------------------------------------| 
--2--2---1--------------------------------------------------------------------------------------------| 
--0--0------------------------------------------------------------------------------------------------| 


3:55 
------------------------------------------------------------------------------------------------------| 
------------------------------------------------------------------------------------------------------| 
------------------------------------------------------------------------------------------------------| 
---7-7-8-7----7-7-8-7----5-5-6-5---2-2-3-2------------------------------------------------------------| 
------------------------------------------------------------------------------------------------------| 
------------------------------------------------------------------------------------------------------| 


4:07 
------------------------------------------------------------------------------------------------------| 
------------------------------------------------------------------------------------------------------| 
------------------------------------------------------------------------------------------------------| 
--7--7---7tr8----7--7---7tr8-----5-5-6-5----2-2-3-2h3p2-----------------------------------------------| 
--7--7-----------7--7---------------------------------------------------------------------------------| 
--5--5-----------5--5---------------------------------------------------------------------------------| 


4:19 
------------------------------------------------------------------------------------------------------| 
------------------------------------------------------------------------------------------------------| 
--9-9-10-9---9-9-10-9---7-7-8-7---4-4-5-4h5p4---------------------------------------------------------| 
------------------------------------------------------------------------------------------------------| 
------------------------------------------------------------------------------------------------------| 
------------------------------------------------------------------------------------------------------| 


4:30 
------------------------------------------------------------------------------------------------------| 
---------10tr11---------10tr11------------------------------------------------------------------------| 
---------------------------------7-7-8-7---4-4-5-4h5p4-----4------------------------------------------| 
--7--7-----------7--7--------------------------------------2------------------------------------------| 
--7--7-----------7--7--------------------------------------0------------------------------------------| 
--5--5-----------5--5---------------------------------------------------------------------------------| 


4:41 (listen for rhythm) 
------------------------------------------------------------------------------------------------------| 
------------------------------------------------------------------------------------------------------| 
-2----------------------------------------2-----------------------------------------------------------| 
-2----5----2---------(end)--2-2-3-2h3p2---2-----------------------------------------------------------| 
-0----5----2------------------------------0-----------------------------------------------------------| 
------3----0------------------------------------------------------------------------------------------| 
share this page

See Also: