E-Chords
Darkthrone

Fuck Off And Die(Tabs)

Darkthrone

roll up this ad to continue

Key: F
 


RIFF 1 x4 
|------------------|----------------|      
|------------------|----------------|      
|------------------|----------------|      
|-4/5-4/5-4/5??-8---|----------------|   x3    
|-2/3-2/3-2/3??-6---|-4/5-4/5-4/5----|  
|------------------|-2/3-2/3-2/3----|  

|------------------|----------------| 
|------------------|----------------| 
|------------------|----------------| 
|------------------|----------------| 
|-2/3-2/3-2/3--4---|-4/5-4/5-4/5----| 
|-0/1-0/1-0/1--2---|-2/3-2/3-2/3----| 

Gtr2 (on 2nd repeat) 
|------------------|----------------| 
|----4-------------|----------------| 
|-5-----5------532-|----------------| 
|------------------|-5--------------| 
|------------------|----------------| 
|------------------|----------------| 

|------------------|----------------| 
|------------------|----------------| 
|-4/5-4/5-4/5??-6---|-6/7-6/7-6/7----| 
|------------------|----------------| 
|------------------|----------------| 
|------------------|----------------| 


RIFF 2 x6 
|-------------------|-------------------|-------------------|----------------| 
|-------------------|-------------------|-------------------|----------------| 
|-------------------|-------------------|-------------------|----------------| 
|---4-3-4-666666666-|---4-3-4-777777777-|---4-3-4-666666666-|----------------| 
|-------------------|-------------------|-------------------|---4-3-4-3------| 
|-1-----------------|-1-----------------|-1-----------------|-1-4-3-4-3------| 


RIFF 3  x4 
|------------------------|------------------------| 
|------------------------|------------------------| 
|------------------------|------------------------| 
|---4-333333333 4--------|------------------------| 
|------------------------|---4-333333333 4--------| 
|-2---------------2-2-2--|-2---------------2-2-2--| 


RIFF 4 x4             F O A D ! !  
|------------------|-------------| 
|------------------|-------------| 
|------------------|-------------| 
|---6-555555555 6--|-------------|  x4 
|------------------|-------------| 
|-2----------------|-------------| 


RIFF 3 x4 
RIFF 4 x4 
RIFF 1 x4 
share this page

See Also: