E-Chords
Daniel San Guitar

O Ébrio(Tabs)

Daniel San Guitar

Key: Am
    

    Am              E7                         Am                A7                   Dm 
E|-0---0-1-0-|-0---------0--------|-----------5-6-5-|-5---------5--------|------------3-3-3-| 
B|-1---------|---3---3-3---3--1-0-|-1-0-------------|-5-8---8-8---8--6-5-|-6-5--------------| 
G|-2---------|--------------------|-2---2-----------|-6------------------|-7---7------------| 
D|-2---------|--------------------|-2---------------|-5------------------|-7----------------| 
A|-0---------|--------------------|-0---------------|-7------------------|-5-----3-2--------| 
E|-----------|-0------------------|-------4-5-------|-5------------------|------------------| 


    G                      Am            E                  Am 
E|-3-1--0-1-3-1--0-1-|-5-------------|------------------|---0-0---0-1-0-| 
B|-3-----------------|-5-5-5---5-6-5-|-0---0-0-0-0--1-0-|-0-------------| 
G|-0-----------------|-5-------------|-1----------------|-2-------------| 
D|-------------------|---------------|-2----------------|-2-------------| 
A|-------------------|---------------|-2----------------|-0-------------| 
E|-3-----------------|-5-------------|-0----------------|---------------| 


    E7                        Am                A7                   Dm 
E|-0---------0--------|-----------5-6-5-|-5---------5--------|------------3-3-3-| 
B|---3---3-3---3--1-0-|-1-0-------------|-5-8---8-8---8--6-5-|-6-5--------------| 
G|--------------------|-2---2-----------|-6------------------|-7---7------------| 
D|--------------------|-2---------------|-5------------------|-7----------------| 
A|--------------------|-0---------------|-7------------------|-5-----3-2--------| 
E|-0------------------|-------4-5-------|-5------------------|------------------| 


    G                      Am            E                   Am     E7 
E|-3-1---0-1-3-1-3-1-|-5-------------|-0-----------------|--------0--------| 
B|-3-----------------|-5-5-5---5-6-5-|-0-3--3-3-1-0------|-0------0--2-2-3-| 
G|-0-----------------|-5-------------|-1-------------2-1-|-2-2----1--------| 
D|-------------------|---------------|-2-----------------|-2------0--------| 
A|-------------------|---------------|-2-----------------|-0------2--------| 
E|-3-----------------|-5-------------|-0-----------------|--------O--------| 


    A       F#7            Bm         E/G#       E                 A    E7 
e|---2---2---2---2-|---------------------|-2-4-2-4-2-4-5-4-|-0----0--0-0-2-| 
B|-5---5---5---5---|-3-2---------5-3-3-5-|-5---------------|-2----0--------| 
G|-2-------3-------|-4---4-------4-------|-4---------------|-2----1--------| 
D|-2-------2-------|-4-----------2-------|-2---------------|-2----0--------| 
A|-0-------4-------|-2-----0h2p0---------|-----------------|-0----2--------| 
E|---------2-------|-------------4-------|-----------------|------O--------| 


    A       F#7            Bm         E/G#       E               A 
e|-4-5-2-4---2---2-|---------------------|-2--------2----|-0---------| 
B|-2-------5---5---|-3-2---------5-3-3-5-|-5-5---5-5---5-|-2---2-2-3-| 
G|-2-------3-------|-4---4-------4-------|-4-------------|-2---------| 
D|-2-------2-------|-4-----------2-------|-2-------------|-2---------| 
A|-0-------4-------|-2-----0h2p0---------|---------------|-0---------| 
E|---------2-------|-------------4-------|---------------|-----------| 


    A       F#7            Bm         E/G#     D                 C#7 
e|---2---2---2---2-|-------------------|-2-4-2-4-2-4-5-4-|-4----5-5-5-| 
B|-5---5---5---5---|-3-2-------5-3-3-5-|-3---------------|-6----------| 
G|-2-------3-------|-4---4-----4-------|-2---------------|-4----------| 
D|-2-------2-------|-4---------2-------|-0---------------|-6----------| 
A|-0-------4-------|-2-------0---------|-----------------|-4----------| 
E|---------2-------|-----------4-------|-----------------|------------| 


    Dm        F      A       F#7       Bm       E7         A    Am 
E|-5--------5--------|-5-------2-------|-2-2------4-4--2-0-|-5----0--0-1-0-| 
B|-6-8--6-8-6-8--6-8-|-5-5-5---2-5-5-5-|-3----5-3-3--------|-2----1--------| 
G|-5--------5--------|-6-------3-------|-4--------4--------|-2----2--------| 
D|-0-----------------|-7-------2-------|-4-----------------|-2----2--------| 
A|----------8--------|-7-------4-------|-2-----------------|-0----0--------| 
E|-------------------|-5-----4-2-------|----------0--------|---------------| 


    E7                      Am                A7                   Dm 
E|-0---------0--------|-----------5-6-5-|-5---------5--------|------------3-3-3-| 
B|---3---3-3---3--1-0-|-1-0-------------|-5-8---8-8---8--6-5-|-6-5--------------| 
G|--------------------|-2---2-----------|-6------------------|-7---7------------| 
D|--------------------|-2---------------|-5------------------|-7----------------| 
A|--------------------|-0---------------|-7------------------|-5-----3-2--------| 
E|-0------------------|-------4-5-------|-5------------------|------------------| 


    G                      Am            E                   Am 
E|-3-1--0-1-3-1--0-1-|-5-------------|-0-----------------|-0-------0-1-0-| 
B|-3-----------------|-5-5-5---5-6-5-|-0-3--0-0-0-0--1-0-|-1-------------| 
G|-0-----------------|-5-------------|-1-----------------|-2-------------| 
D|-------------------|---------------|-2-----------------|-2-------------| 
A|-------------------|---------------|-2-----------------|-0-------------| 
E|-3-----------------|-5-------------|-0-----------------|---------------| 


    E7                      Am                A7                   Dm 
E|-0---------0--------|-----------5-6-5-|-5---------5--------|------------3-3-3-| 
B|---3---3-3---3--1-0-|-1-0-------------|-5-8---8-8---8--6-5-|-6-5--------------| 
G|--------------------|-2---2-----------|-6------------------|-7---7------------| 
D|--------------------|-2---------------|-5------------------|-7----------------| 
A|--------------------|-0---------------|-7------------------|-5-----3-2--------| 
E|-0------------------|-------4-5-------|-5------------------|------------------| 


    G                      Am            E                Am 
E|-3-1---0-1-3-1-3-1-|-5-------------|-0--------------|---------|| 
B|-3-----------------|-5-5-5---5-6-5-|-0-3--3-1-0-----|-0-------|| 
G|-0-----------------|-5-------------|-1----------2-1-|-2-2-2---|| 
D|-------------------|---------------|-2--------------|-2-------|| 
A|-------------------|---------------|-2--------------|-0-------|| 
E|-3-----------------|-5-------------|-0--------------|---------|| 

roll up this ad to continue

share this page

See Also: