E-Chords
Daniel Lioneye

The King Of Rock'n'Roll(Tabs)

Daniel Lioneye

Eb|----------------------------------------------------------------------------------------|
Bb|----------------------------------------------------------------------------------------|
F#|----------------------------------------------------------------------------------------|
C#|-----------------------2----------------------2---------------------2------------------2|
G#|-----------------2h3h4------------------2h3h4----------------2h3h4----------------2h3h4-|
C#|-2-2--5-2-5-2-5-----------2--5-2-5-2-5----------2--5-2-5-2-5----------2-5-2-5-2-5-------|

Eb|-------------------------|
Bb|-------------------------|
F#|-------------------------|
C#|-----------------------2-|
G#|-----------------2h3h4---|
C#|-2-2--5-2-5-2-5----------|

Eb|-------------------------|
Bb|-------------------------|
F#|-------------------------|
C#|-----------------------2-|
G#|-----------------2h3h4---|
C#|-2-2--5-2-5-2-5----------|

Eb|------------------------------------------------------------|
Bb|------------------------------------------------------------|
F#|------------------------------------------------------------|
C#|------------------------------------------------------------|
G#|-9--9-9--9-9-9--9--9-9--9-9-9--7--7-7--7-7-7--7--7-7--7-7-7-|
C#|-7--7-7--7-7-7--7--7-7--7-7-7--5--5-5--5-5-5--5--5-5--5-5-5-|

Eb|----------------------------------------------------------------------------------------|
Bb|----------------------------------------------------------------------------------------|
F#|----------------------------------------------------------------------------------------|
C#|-----------------------2----------------------2---------------------2------------------2|
G#|-----------------2h3h4------------------2h3h4----------------2h3h4----------------2h3h4-|
C#|-2-2--5-2-5-2-5-----------2--5-2-5-2-5----------2--5-2-5-2-5----------2-5-2-5-2-5-------|

Eb|-------------------------|
Bb|-------------------------|
F#|-------------------------|
C#|-----------------------2-|
G#|-----------------2h3h4---|
C#|-2-2--5-2-5-2-5----------|

Eb|-------------------------|
Bb|-------------------------|
F#|-------------------------|
C#|-----------------------2-|
G#|-----------------2h3h4---|
C#|-2-2--5-2-5-2-5----------|

Eb|------------------------------------------------------------|
Bb|------------------------------------------------------------|
F#|------------------------------------------------------------|
C#|------------------------------------------------------------|
G#|-9--9-9--9-9-9--9--9-9--9-9-9--7--7-7--7-7-7--7--7-7--7-7-7-|
C#|-7--7-7--7-7-7--7--7-7--7-7-7--5--5-5--5-5-5--5--5-5--5-5-5-|

Eb|-------------------------|
Bb|-------------------------|
F#|-------------------------|
C#|-----------------------2-|
G#|-----------------2h3h4---|
C#|-2-2--5-2-5-2-5----------|

Eb|-------------------------|
Bb|-------------------------|
F#|-------------------------|
C#|-----------------------2-|
G#|-----------------2h3h4---|
C#|-2-2--5-2-5-2-5----------|

Eb|------------------------------------------------------------------------|
Bb|-----------------------10----------10------------------------10---------|
F#|-11--9-11-9-11-9-11~~-----11-9--------11-11~~--11--9-11-9-11----11-11---|
C#|-------------------------------11---------------------------------------|
G#|------------------------------------------------------------------------|
C#|------------------------------------------------------------------------|

Eb|----------------------------------------------|
Bb|-----------------------10----------10---------|
F#|-11--9-11-9-11-9-11~~-----11-9--------11-11~~-|
C#|-------------------------------11-------------|
G#|----------------------------------------------|
C#|----------------------------------------------|
Eb|-------------------------------------------------|

Bb|-161616161616161616161616-1414141414141414141414-|
F#|-161616161616161616161616-1414141414141414141414-|
C#|-------------------------------------------------|
G#|-------------------------------------------------|
C#|-------------------------------------------------|   
                                                    
Eb|---------------------------------------------------/-------|
Bb|--------------------------------------------------/--------|
F#|-11--9-11-9-11-9-11~~---11--9-11-9-11-9-11~~--9bf/---9b~~--|
C#|-----------------------------------------------------------|
G#|-----------------------------------------------------------|
C#|-----------------------------------------------------------|

Eb|---------------|
Bb|---------------|
F#|---------------|
C#|---------------|
G#|-4-4--4-4--4-4-|
C#|-2-2--2-2--2-2-|

Eb|----------------------------------------------|
Bb|----------------------------------------------|
F#|-11--9-11-9-11-9-11~~---11--9-11-9-11-9-11~~--|
C#|----------------------------------------------|
G#|----------------------------------------------|
C#|----------------------------------------------|

Eb|---------------------------------------------------|
Bb|---------------------------------------------------|
F#|-11--9-11-9-11-9-11~~---11--9-11-9-11-9-11~~---11\-|
C#|---------------------------------------------------|
G#|---------------------------------------------------|
C#|---------------------------------------------------|

Eb|----------------------------|
Bb|----------------------------|
F#|-11--9-11-9-11-9-11~~---11\-|
C#|----------------------------|
G#|----------------------------|
C#|----------------------------|

Eb|----------------------------|
Bb|----------------------------|
F#|-11--9-11-9-11-9-11~~---11\-|
C#|----------------------------|
G#|----------------------------|
C#|----------------------------|

Eb|-----------------------------------------------------|
Bb|-1616161616161616-/16161616-14141414-/14141414141414-|
F#|-1616161616161616-/16161616-14141414-/14141414141414-|
C#|-----------------------------------------------------|
G#|-----------------------------------------------------|
C#|-----------------------------------------------------|

Eb|-----------------------------------------------------|
Bb|-161616161616-/161616161616-1414141414-/141414141414-|
F#|-161616161616-/161616161616-1414141414-/141414141414-|
C#|-----------------------------------------------------|
G#|-----------------------------------------------------|
C#|-----------------------------------------------------|

Eb|----------------------------------------------|
Bb|----------------------------------------------|
F#|-11--9-11-9-11-9-11~~---11--9-11-9-11-9-11~~--|
C#|----------------------------------------------|
G#|----------------------------------------------|
C#|----------------------------------------------|

Eb|----------------------------------------------|
Bb|----------------------------------------------|
F#|-11--9-11-9-11-9-11~~---11--9-11-9-11-9-11~~--|
C#|----------------------------------------------|
G#|----------------------------------------------|
C#|----------------------------------------------|

Eb|----------------------------------------------|
Bb|----------------------------------------------|
F#|-11--9-11-9-11-9-11~~---11--9-11-9-11-9-11~~--|
C#|----------------------------------------------|
G#|----------------------------------------------|
C#|----------------------------------------------|

Eb|----------------------------------------------|
Bb|----------------------------------------------|
F#|-11--9-11-9-11-9-11~~---11--9-11-9-11-9-11~~--|
C#|----------------------------------------------|
G#|----------------------------------------------|
C#|----------------------------------------------|

Eb|----------------------------------------------|
Bb|----------------------------------------------|
F#|-11--9-11-9-11-9-11~~---11--9-11-9-11-9-11~~--|
C#|----------------------------------------------|
G#|----------------------------------------------|
C#|----------------------------------------------|

Eb|---------------------------------------------------------------------------------|
Bb|-161616161616161616161616-161616161616161616161616161616161616161616161616161616-|
F#|-161616161616161616161616-161616161616161616161616161616161616161616161616161616-|
C#|---------------------------------------------------------------------------------|
G#|---------------------------------------------------------------------------------|
C#|---------------------------------------------------------------------------------| 

roll up this ad to continue

share this page

See Also: