E-Chords
Daniel Lioneye

Roller(Tabs)

Daniel Lioneye

Intro
E----------------------------
B----------------------------
G---------------------------- 
D----------------------------  x4
A----------------------------
E--------0-00-(12)-----------
Intro 
Riff
E----------------------------
B----------------------------
G---------------------------- x8
D------------5/6-------------

A----5-5-5677----------------
E-547-7-7--------------------Riff 

Break
E----------------------------
B----------------------------
G----------------------------
D----7---5-4-----------------
A----7---5-4-----------------
E----5xxx3x2-----------------
Intro 
Riff x2
Riff 
Break x1

E----------------------------
B----------------------------
G----------------------------
D----22-57----22-75---22-57--
A----22-57----22-75---22-57--
E----00x35----00x53---00x35-- 

roll up this ad to continue

share this page

See Also: