E-Chords
Daniel Lioneye

Kiss Of The Cannibal(Tabs)

Daniel Lioneye

Key: C#
Intro: 
00-57/12/\17-0000-3510-8----00-57/12-1512131210-000-000-3510-8----|x2 
00-57/12/\17-0000-3510-8-7b-00-57/12-1512131210-000-000-3510-8-7b-|x2 
00-57/12/\17-0000-3510-8-7b-00-57/12-1512131210-000-000-3510-8-7b-|x2 
-------------------------7b------------------------------------7b-|x2 
------------------------------------------------------------------| 
------------------------------------------------------------------| 




Verse: 
0000000057/1212121212121212000000003510101010188887777| 
0000000057/1212121212121212000000003510101010188887777| 
0000000057/1212121212121212000000003510101010188887777| 
------------------------------------------------------| 
------------------------------------------------------| 
------------------------------------------------------| 

Chorus part 1: 
000000003555555553333333322222222-000222333555-88888888888888888 
000000003555555553333333322222222-000222333555-88888888888888888 
000000003555555553333333322222222-000222333555-88888888888888888 

Intro 
Verse 
Chorus part 1 
Chorus part 2: 
121212121212121210101010101010105555555555555555-000222333555-88888888888888888| 
121212121212121210101010101010105555555555555555-000222333555-88888888888888888| 
121212121212121210101010101010105555555555555555-000222333555-88888888888888888| 
-------------------------------------------------------------------------------| 
-------------------------------------------------------------------------------| 
-------------------------------------------------------------------------------| 

Interlude: 
0007PM------0000------0000-------|PS 
0007PM------0000------0000-------|PS 
0007PM------0000------0000-------|PS 
---------------------------------| 
---------------------------------| 
---------------------------------| 

000200300500300200300--x4   This part isn't exactly right, 
0002003005003002003005bx4   but it sounds ok. 
0002003005003002003005bx4 
---------------------5b-|x4 
------------------------| 
------------------------| 
Chorus part 2 
Chorus part 1 
Chorus part 2 
Outro 
00-57/12/\17-0000-3510-8----00-57/12-1512131210-000-000-3510-8------------------| 
00-57/12/\17-0000-3510-8-7b-00-57/12-1512131210-000-000-3510-8-7----------------|b 
00-57/12/\17-0000-3510-8-7b-00-57/12-1512131210-000-000-3510-8-7----------------|b 
-------------------------7b------------------------------------7----------------|b 
--------------------------------------------------------------------------------| 
--------------------------------------------------------------------------------| 

00-57/12/\17-0000-3510-8----00-57/12-1512131210-000-000-3510--8--7--0-----------|PS 
00-57/12/\17-0000-3510-8-7b-00-57/12-1512131210-000-000-3510--8--7--0-----------|PS 
00-57/12/\17-0000-3510-8-7b-00-57/12-1512131210-000-000-3510--8--7--0-----------|PS 
-------------------------7b-----------------------------------------------------| 
--------------------------------------------------------------------------------| 
--------------------------------------------------------------------------------| 
Key: 
B= Bend 
PM=Palm Mute 
PS=Pick Slide 

There you are. Mabey not the best tab, but it's the only one on the internet at 
the moment. Hope you enjoy playing this beast of a song =) 

roll up this ad to continue

share this page

See Also: