E-Chords
Daft Punk

Tron Legacy - End Titles (intro)(Tabs)

Daft Punk

Key: G#

e|-------------------------------|-------------------------------------------| 
B|-------------------------------|-------------------------2--------4--------| 
G|-------------------------------|-----------4---3---------------------------| 
D|----------------4----------6---|-------------------------------------------| 
A|---------4--6------6-----------|-------------------------------------------| 
E|--4--4-----------------4-------|--2---2-------------2---------2------------| 

e|-------------------------------|-------------------------------------------| 
B|-------------------------------|-------------------------------------------| 
G|-------------------------------|---------------8--6------8-----------------| 
D|-------------------------------|---------6--8------------------------------| 
A|---------------4--2------4-----|---6--6--------------6---------------------| 
E|--0--0--2--4---------0---------|-------------------------------------------| 

e|-------------------------------|-------------------------------------------| 
B|-------------------------------|-------------------------------------------| 
G|----------------6--4-------6---|-------------------------------------------| 
D|---------4--6------------------|---------------6--4------6-----------------| 
A|--4--4-----------------4-------|--------4--6-------------------------------| 
E|-------------------------------|--0--0---------------0---------------------| 

e|------------------------------------|--------------------------------------| 
B|-----------------------2-------4----|--------------------------------------| 
G|----------4---3---------------------|--------------------------------------| 
D|------------------------------------|--------------------------------------| 
A|------------------------------------|--------------------------------------| 
E|--2--2------------2--------2--------|--------------------------------------| 

roll up this ad to continue

share this page

See Also: