E-Chords
Daft Punk

Too Long(Tabs)

Daft Punk

Pad Synth Intro Part 

e|-8-8-----4-4----8-8-----6---4-4-| 
B|-8-8-----4-4----8-8-6/8---8-4-4-| 
G|--------------------------------| 
D|--------------------------------| 
A|--------------------------------| 
E|--------------------------------| 


Bass Line 

e|-------------| 
B|-------------| 
G|-------------| 
D|-------------| 
A|-8~8-3-3-3/4-| 
E|-------------| 


Second Movement Main Sample 

e|--------------13----| 
B|-13-13--------------| 
G|-13-13------13--13--| 
D|-13-13-13/15--------| 
A|--------------------| 
E|--------------------| 


5:52-5:54 

e|---------------------| 
B|--8-8-8-x-8-x-8/11-8-| 
G|--8-8-8-x-8-x-8/10-8-| 
D|--8-8-8-x-8-x-8/8--8-| 
A|---------------------| 
E|---------------------| 


Vocal Sample 'Ooh Ah' 

e|-------------| 
B|------11/13~-| 
G|-13p14-------| 
D|-------------| 
A|-------------| 
E|-------------| 


Outro 

e|-1-1-------1-1-| 
B|-1-1-------1-1-| 
G|-1-1-----1---1-| 
D|-1-1-1/3-----1-| 
A|---------------| 
E|---------------|  

roll up this ad to continue

share this page

See Also: