E-Chords
Daft Punk

Television Ruled The Nation(Tabs)

Daft Punk

Key: E
     -> INTRO 

Guitar 1 
******** 
E|------------------------------------------| 
B|------------------------------------------| 
G|------------------------------------------| 
D|-2---4-5---------------2---4-5------------| 
A|-2---4-5----3---2-0----2---4-5----3---2-0-| 
E|------------3---2-0---------------3---2-0-| 

     -> Rest of song (!*!) 

At a point in the song, you can hear guitar switch to a less 'wild' growl. 
At this point, turn down the overdrive so it's a bit clearer. 

Guitar 1 
******** 
E|------------------------------------------| 
B|------------------------------------------| 
G|------------------------------------------| 
D|-2---4-5---------------2---4-5------------| 
A|-2---4-5----3---2-0----2---4-5----3---2-5-| 
E|------------3---2-0---------------3---2-5-| 

(!*!)For the rest of the song. On the 'turned down overdrive part' 
you play the intro part for as long as needed. Notice 
here (left) how you play the fith fret of the A and lower E 
strings the second time, whereas you played them open 
in the intro. 

Guitar 2 
******** 
After intro, do a slide with the PINKY FINGER on Lower E string from 12th fret up, and  
quickly get 1st and 2nd 
Fingers into E5 postion (first chord). Do this at all necessary times in the song. 

E|--------------------| 
B|--------------------| 
G|------------5---4-2-| 
D|-2---4-5----5---4-2-| 
A|-2---4-5----3---2-0-| 
E|-0---2-3------------| 

For the rest of the song, sam setting as Guitar 1, but slightly lower volume, 
to let main chords of Guitar 1 ring though. 

roll up this ad to continue

share this page

See Also: