E-Chords
Daft Punk

Steam Machine (live)(Tabs)

Daft Punk

 
 


e|---------------------------------------------------------------------------| 
B|---------------------------------------------------------------------------| 
G|.--------------------------------------------------------------------------| 
D|.-------2---5-------2---5-------2-------2---4-------2---4-------2----------| 
A|---------------------------------------------------------------------------| 
E|----0-----------0-----------0-------3-----------3-----------3--------------| 

e|---------------------------------------------------------------------------| 
B|---------------------------------------------------------------------------| 
G|------------2-----------2-------------------------------------------------.| 
D|--------2-----------2-----------2-------2---5-------2---5-------2---------.| 
A|----0-----------0-----------0----------------------------------------------| 
E|------------------------------------0-----------0-----------0--------------| 

roll up this ad to continue

share this page

See Also: