E-Chords
Daft Punk

Robot Rock(Tabs)

Daft Punk

Tuning: EADGBe 
		3rd time hold this part until verse 
e|---------------------------------------------------------------------------| 
B|---------------------------------------------------------------------------| 
G|7-7-7-7-7-7-7-5------------------------------------------------------------| 3 Times 
D|7-7-7-7-7-7-7-5------------------------------------------------------------| 
A|5-5-5-5-5-5-5-3------------------------------------------------------------| 
E|---------------------------------------------------------------------------| 

e|---------------------------------------------------------------------------| 
B|---------------------------------------------------------------------------| 
G|7---9-7------9-7---------7-7-7---------------------------------------------| 
D|7------------------------7-7-7---------------------------------------------| 
A|5-------8-7------8-7-5---5-5-5---------------------------------------------| 
E|---------------------------------------------------------------------------| 

e|---------------------------------------------------------------------------| 
B|---------------------------------------------------------------------------| 
G|7-5-7-5-7-5-7-5------------------------------------------------------------| 
D|7-5-5-3-5-3-5-3------------------------------------------------------------| 
A|5-3-5-3-5-3-5-3------------------------------------------------------------| 
E|---------------------------------------------------------------------------| 


e|---------------------------------------------------------------------------| 
B|---------------------------------------------------------------------------| 
G|7---9-7------9-7---------7-7-7---------------------------------------------| 
D|7------------------------7-7-7---------------------------------------------| 
A|5-------8-7------8-7-5---5-5-5---------------------------------------------| 
E|---------------------------------------------------------------------------| 


| /  slide up 
| \  slide down 
| h  hammer-on 
| p  pull-off 
| ~  vibrato 
| +  harmonic 
| x  Mute note 

Any comments mail to: [email protected] 
=============================================================================== 

roll up this ad to continue

share this page

See Also: