E-Chords
Daft Punk

Human After All(Tabs)

Daft Punk

 

Tuning: Standard 

e|--------------------------------------------------------------| 
B|--------------------------------------------------------------| 
G|---------------7--9/11--9-----------------7--7/9--7-----------| 
D|---------7-h-9----------------------7-h-9---------------------| 
A|--7-h-9-----------------------7-h-9---------------------------| 
E|--------------------------------------------------------------| 

e|--------------------------------------------------------------| 
B|--------------------------------------------------------------| 
G|----------------7--9/11--12----------------7--9/11--9---------| 
D|---------7-h-9-----------------------7-h-9--------------------| 
A|--7-h-9------------------------7-h-9--------------------------| 
E|--------------------------------------------------------------| 



| /  slide up 
| \  slide down 
| h  hammer-on 
| p  pull-off 
| ~  vibrato 
| +  harmonic 
| x  Mute note 
=============================================================================== 

roll up this ad to continue

share this page

See Also: