E-Chords
Daft Punk

Harder,Better,Faster,Stonger(Tabs)

Daft Punk

|---------------------------------||---------------------------------| 
|---------------------------------||-----2-0-----0-------------------| 
|-------------------------2-2-----||---------------2-----1-----------| 
|---------4-4---------------------||-----------------------4---------| 
|-----------------0-0-------------||-----------------------------4-2-| 
|-4-4-----------------------------||---------------------------------| 
 
|---------------------------------||---------------------------------| 
|---------------------------------||---------------------2-0---------| 
|-------------------------2-2-----||-------------4-2-----------------| 
|---------4-4---------------------||-----4-2-------------------------| 
|-----------------0-0-------------||---------------------------------| 
|-4-4-----------------------------||-----------------------------6-4-| 
 
|---------------------------------||---------------------------------| 
|---------------------------------||-----2-0-----0-------------------| 
|-------------------------2-2-----||---------------2-----1-----------| 
|---------4-4---------------------||-----------------------4---------| 
|-----------------0-0-------------||-----------------------------4-2-| 
|-4-4-----------------------------||---------------------------------| 
 
|---------------------------------||---------------------------------| 
|-----2-0-----0-------------------||---------------------2-0---------| 
|---------------2-----1---2-2-----||-------------4-2---------2-2-----| 
|---------4-4-----------4---------||-----4-2-4-4---------------------| 
|-----------------0-0---------4-2-||-----------------0-0-------------| 
|-4-4-----------------------------||-4-4-------------------------6-4-| 
 
|-----------------------------------------------------------------| 
|-----2-0-----0-----------------------------------2---------------| 
|---------------2-----1---2-2---------------2-4-2---4-2-------2---| 
|---------4-4-----------4-----------------4-------------4-2-4---4-| 
|-----------------0-0---------4-2---0-2-0-------------------------| 
|-4-4-----------------------------4-------------------------------| 
 
|-------------------------------------5---7-5---------------------| 
|---------2-----------------------------7-----7-5-----------------| 
|-------2---2---2-----2---4-2-1-2-----------------------2---------| 
|-----4-------4---------4-----------------------------4-----------| 
|-----------------------------------------------------------------| 
|-4-4-------------2-2-------------1-1-------------0-0-----4-4-4-4-| 
							  ^ ^ ^ ^ 
|-----------------------------------------------------------------| 
|---------2---------------2---------------------------------------| 
|-----2-----4-2-------2-----4-2---2-2-------------2-2-----2-2-----| 
|-2-4---4-------4-2-4---4-------4-----4-4-------------4-4-----4-4-| 
|-----------------------------------------0-0---------------------| 
|---------------------------------------------4-4-----------------| 
 
|-------------------------------------5---7br-5-------------------| 
|---------2---------------2-------5-7---7-------7-----------------| 
|-----2-----4-2-------2-----4-2-----------------------2-4---------| 
|-2-4---4-------4-2-4---4-------4-----------------2-4-------------| 
|-----------------------------------------------------------------| 
|---------------------------------------------------------4-4-4-4-| 
							    ^ ^ ^ 
|-----5---9p7-5---------5---9p7-5-----5--9-5----------------------| 
|-5-7---7--------7-5--7---7--------57---7----7-5-7----------------| 
|-----------------------------------------------------------------| 
|-------------------------------------------------7-9-------------| 
|-----------------------------------------------------97-9-75-----| 
|-------------------------------------------------------------4-4-| 
							      ^ ^ 
|-----------------/7p5----5---9-7-u-u-u-u-u-u-u-u/9-7-------------| 
|---------5-7-5-7-----5-7---7-------------------------7-7---------| 
|-/6p4------------------------------------------------------------| 
|-----4-4-------------------------------------------------4-4-----| 
|-----------------------------------------------------------------| 
|-------------------------------------------------------------4-4-| 
							      ^ ^ 
|-----5-5-5---/9p7-5-----------7/9-7\5---------------------------------| 
|-5h7-------7---------/5-7-7-5-----------------------------------------| 
|--------------------------------------------------------------4/6-4-2-| 
|----------------------------------------------------------------------| 
|--------------------------------------0-0-0--/4p2-0---0-0-/4p2--------| 
|--------------------------------------------4-------------------------| 
 
|---------------------------------------------14-14---------------| 
|-------------/2-0------------------------------------------------| 
|-----------------------------/4-2------------------11-11---------| 
|-4--4-4---2-44-----4-4---2-44-----4-4---2-44---------------------| 
|--------4--------------4--------------4------------------9-9-----| 
|-------------------------------------------------------------4-4-| 
 
|-----------------------------------------------------------------| 
|-------------------------------------------------2---------------| 
|-/6-4-----------/4-2-------------------------------4-2-2h4/6-4-2-| 
|---------2-4-2-4-------------------------------------------------| 
|----------------------4-2-0--------------------------------------| 
|----------------------------4-4-4--4-4-4-0-2h4-4-----------------| 
 
|---------------------------------------------14-14---------------| 
|-------------/2-0------------------------------------------------| 
|-----------------------------/4-2------------------11-11---------| 
|-/4-4-4---2-44-----4-4---2-44-----4-4---2-44---------------------| 
|--------4--------------4--------------4------------------9-9-----| 
|-------------------------------------------------------------4-4-| 
 
|-/21--21-21-21-19-17----19h21p19-17----| 
|---------------------19-------------19-| 
|---------------------------------------| 
|---------------------------------------| 
|---------------------------------------| 
|---------------------------------------| 
 
|----------------------------------------------------------------------| 
|----------------------------------------------------------------------| 
|----14-16-14-16h18p14h16-18-16-14-------14---/18-/18-/18-/18p16-14----| 
|-16-------------------------------14h16----------------------------16-| 
|----------------------------------------------------------------------| 
|----------------------------------------------------------------------| 
 
|---------------------------------/9-7----------------------------| 
|--------------------------------------10-7-----------------------| 
|----------------------2------------------------------------------| 
|-/11-9------------2-4---4----------------------------------------| 
|-------12-9--------------------------------------0-0-2-2---------| 
|---------------------------------------------------------4-4-4-4-| 
 
|----------/9-7------------------5---/9-7--------------------------------| 
|---------------10-7---------5-7---7------10-7---------------------------| 
|-/6-4-----------------------------------------/6-4----------------------| 
|------7-4-------------4-7-4------------------------7-4------------------| 
|--------------------7---------------------------------------------------| 
|--------------------------------------------------------4-4-4-4-4-4-4-4-| 
 
[email protected] 
This Music Rocks								 

roll up this ad to continue

share this page

See Also: