E-Chords
Daft Punk

Give Life Back To Music(Tabs)

Daft Punk

Key: Am
Intro: 
          Am            G             F           Dsus4 
E|--------------------------------------------------3---| 
B|------------------------------------1-------------3---| 
G|-----0--2---------------------0--2--2-------0--2--2---| 
D|--2-----2-------------5-------------3-------------0---| 
A|--------0-------5--7--5-------------3-----------------| 
E|----------------------3-------------1-----------------| 

         Am            G             F           Dsus4 
E|---------------------3-------------1-------------3----| 
B|-------1-------------3-------------1-------------3----| 
G|----0--2-------------4-------0--2--2-------0--2--2----| 
D|-2-----2-------------5-------------3-------------0----| 
A|---------------5--7-----------------------------------| 
E|------------------------------------------------------| 

Verse 1: 
E|---------------------------------------------| 
B|---------------------------------------------| 
G|--5-----------------------5---------------5--| 
D|--7---7---5---7---5--7----7---7---5---7---7--| 
A|------8---7---8---7--8--------8---7---8------| 
E|---------------------------------------------| 

E|---------------------------------------------------------| 
B|---------------------------------------------------------| 
G|--5-----------------------5-------7-/-9---5---7--5-------| 
D|--7---7---5---7---5--7----7---5---7-/-9---5---7--5--5--7-| 
A|------7---5---7---5--7--------7---------------------7--8-| 
E|---------------------------------------------------------| 

Verse 2 (Slightly different than verse 1): 
E|--------------------------------------------| 
B|--------------------------------------------| 
G|--5-----------------------5-----------------| 
D|--7---7---5---7---5--7----7---7---5---5--7--| 
A|------8---7---8---7--8--------8---7---7--8--| 
E|--------------------------------------------| 

E|----------------------------------------------------------| 
B|----------------------------------------------------------| 
G|--5-----------------------4-------7-/-9---5---7--5--------| 
D|--7---7---5---7---5--7----5---5---7-/-9---5---7--5--5--7--| 
A|------7---5---7---5--7--------7---------------------7--8--| 
E|----------------------------------------------------------| 


Funky chords: 
    Am 
E|-----x--x------x--x------------------x-------------------------| 
B|--13-x--x--13--x--x--13--13--13--13--x-------------------------| 
G|--x--x--x--x---x--x--x---x---x---x---x-------------------------| 
D|--14-x--x--14--x--x--14--14--14--14--x------------------9------| 
A|--12-x--x--12--x--x--12--12--12--12--x------10--11--12-----12--| 
E|---------------------------------------------------------------| 

    G 
E|------x--x-----------------x------x--x--| 
B|--12--x--x-12--12--12--12--x--12--x--x--| 
G|--12--x--x-12--12--12--12--x--12--x--x--| 
D|--12--x--x-12--12--12--12--x--12--x--x--| 
A|--10--x--x-10--10--10--10--x--10--x--x--| 
E|----------------------------------------| 

    F 
E|--8--x--x--8---x--x--8---8---8---8---x-----------------------| 
B|--10-x--x--10--x--x--10--10--10--10--x-----------------------| 
G|--9--x--x--9---x--x--9---9---9---9---x------------------5----| 
D|--10-x--x--10--x--x--10--10--10--10--x------5---6---7------7-| 
A|-------------------------------------------------------------| 
E|-------------------------------------------------------------| 

  Dsus4 
E|-----x--x-----------------x------x--x--| 
B|--6--x--x--6---6---6---6--x---6--x--x--| 
G|--x--x--x--x---x---x---x--x---x--x--x--| 
D|--7--x--x--7---7---7---7--x---7--x--x--| 
A|--5--x--x--5---5---5---5--x---5--x--x--| 
E|---------------------------------------| 

 

roll up this ad to continue

share this page

See Also: