E-Chords
Daft Punk

Giorgio By Moroder(Tabs)

Daft Punk

 

                                      Repeats 
E--------------------------------------------------------------------------| 
B--------------------------------------------------------------------------| 
G------------------------------12h14--------------------------------12h14--| 
D-7-9-10-9-10-12-10-12-14-12-14--------7-9-10-9-10-12-10-12-14-12-14-------| 
A--------------------------------------------------------------------------| 
E--------------------------------------------------------------------------| 

     The same at five string                         12 fret ending 
 --------------------------------------------------------------------------| 
 --------------------------------------------------------------------------| 
 --------------------------------------------------------------------------| 
 ------------------------------12h14-------------------------------12/14\12| 
 -7-9-10-9-10-12-10-12-14-12-14-------7-9-10-9-10-12-10-12-14-12-14--------| 


             Repeat this until solo changes (8:21 approximately) 
 Next is: 
 --------------------------------------------------------------------------| 
 --------------------------------------------------------------------------| 
 ------------------------10-9----------------------------12----------------| 
 -3-5-7-5-7-9-7-9-10-9-10------5-7-9-7-9-10-9-10-12-10-12------------------| 
 --------------------------------------------------------------------------| 
 --------------------------------------------------------------------------| 

 --------------------------------------------------------------------------| 
 --------------------------------------------------------------------------| 
 --------------------------------------------------------------------------| 
 ---------------------------12-------------------------------12/14\12------| 
 -5-7-8-7-8-10-8-10-12-10-12----7-9-10-9-10-12-10-12-14-12-14--------------| 
 --------------------------------------------------------------------------| 

 (the same as first) 
 --------------------------------------------------------------------------| 
 --------------------------------------------------------------------------| 
 ------------------------10-9----------------------------12----------------| 
 -3-5-7-5-7-9-7-9-10-9-10------5-7-9-7-9-10-9-10-12-10-12------------------| 
 --------------------------------------------------------------------------| 
 --------------------------------------------------------------------------| 

 -----------------------------------------------------------------------------| 
 -----------------------------------------------------------------------------| 
 -----------------------------------------------------------------------------| 
 -------------------------------12/14\12-----------------------------12/14\12-| 
 -7-9-10-9-10-12-10-12-14-12-14---------7-9-10-9-10-12-10-12-14-12-14---------| 
 -----------------------------------------------------------------------------| 

 

roll up this ad to continue

share this page

See Also: