E-Chords
Daft Punk

Emotion(Tabs)

Daft Punk

Key: G
- the song is written in 4/4 time 
- strum/pluck the melody on 1, 2+, 5, 7, and 8 for the 2nd riff. 
- strum/pluck the bass on 1, 3, 5, and 7 


      1+2+3+4+5+6+7+8+ 
e|------------------------| (bass notes not shown here) 
B|------------------------| 
G|----4--5--------7-------| (let the 'C' note ring on the G string when lifting your 
D|----5--7----5---7-------|  finger to play the 'G' note on the D string.) 
A|------------------------| 
E|------------------------| 
    Emoootiooo00n 

0:00 Repeat 8 times   -   intro 
0:38 Repeat 8 times   -   vocals come in 
1:18 Repeat 4 times   -   bass comes in 


      1+2+3+4+5+6+7+8+ 
e|--------------------------| (bass notes not shown here) 
B|----3--5--------7-8-------| (do the same here, let 'C' and 'E' ring while playing 
G|----4--5--------7---------|  the 'G' note on the D string. Also do the same 
D|----5--7----5---7---------|  with that last half step up on the B string.) 
A|--------------------------| 
E|--------------------------| 
    Emoootiooo00n 

1:38 Repeat 4 times   -   new riff 
1:58 Repeat 4 times   -   bass stops 
2:17 Repeat 12 times  -   bass/beat comes in w/ yeeuh 


      1+2+3+4+5+6+7+8+ 
e|------------------------| (bass notes shown here) 
B|------------------------| 
G|----4--5--------7-------| 
D|----5--7----5---7-------| 
A|--------0-------5-------| (the bass has a consistent rhythm. The way the melody is 
E|----0-------8-----------|  played, the 'A' note is given a slight syncopated sound.) 

3:15 Repeat 8 times   -   bass/beat stops, 1st riff 
3:55 Repeat 4 times   -   bass comes in w/ yeeuh  


      1+2+3+4+5+6+7+8+ 
e|--------------------------| (bass notes shown here) 
B|----3--5--------7-8-------| 
G|----4--5--------7---------| 
D|----5--7----5---7---------| (the ?C? bass note may have to be slightly reached for. 
A|--------0-------5---------|  the same note can also be played on the A string 
E|----0-------8-------------|  third fret depending on how your fingering is.) 

4:14 Repeat 4 times   -   2nd riff 
4:34 Repeat 4 times   -   bass stops 
4:53 Repeat 24~ times -   bass/beat comes in w/ yeeuh 

fade out........ 

------------------- 

The riffs can also be played like this: 

      1+2+3+4+5+6+7+8+ 
e|------------------------| (bass notes shown here) 
B|------------------------| 
G|----4--5----5---7-------| 
D|----5--7----5---7-------| 
A|--------0-------5-------|  
E|----0-------8-----------|  


      1+2+3+4+5+6+7+8+ 
e|--------------------------| (bass notes shown here) 
B|----3--5----5---7-8-------| 
G|----4--5----5---7---------| 
D|----5--7----5---7---------| 
A|--------0-------5---------| 
E|----0-------8-------------| 

Whatever sounds better. 


tabbed by: Blaine Arihara 

roll up this ad to continue

share this page

See Also: