E-Chords
Daft Punk

Digital Love(Tabs)

Daft Punk

e|---------------------------------------------------------------------| 
B|---------------------------------------------------------------------| 
G|-7-7--6--11--9-------------------------------------------------------| x? 
D|-7-7--6--11--9------7----4-6-7-6-4-----------------------------------| 
A|-5-5--4--9---7---7h9--7------------7---------------------------------| 
E|---------------------------------------------------------------------| 

this is thrown in later a couple times and during the solo 

e|----------------------------------------------------------------------| 
B|----------------------------------------------------------------------| 
G|--7-7--6-6--11-11---9--9-9--------------------------------------------| 
D|--7-7--6-6--11-11---9--9-9--------------------------------------------| 
A|--5-5--4-4--9--9----7--7-7--------------------------------------------| 
E|----------------------------------------------------------------------| 

pre-solo 

e|------------------------------------------------------------------------| 
B|---------------------------------------------16b------------------------| 
G|------------------------------------14----14----------------------------| 
D|---------------14b------------14-16----16-------------------------------| 
A|-------12---12----------------------------------------------------------| 
E|-12-14---14-------------------------------------------------------------| 
why don't you play the game? 


solo 

e|-------------------------------17-16-17-14--17--17--17--17----------------------------| 
B|------------------------/18-16------------17--15--14----------------------------------| 
G|------------/16-14~--14-------------------------------16--14~-------------------------| 
D|----/16-14~---------------------------------------------------------------------------| 
A|-12~----------------------------------------------------------------------------------| 
E|--------------------------------------------------------------------------------------| 

this is played extremely quickly. tremelo is the easiest way to do this and you may end  
hitting extra notes. 
e|---------------------------------------16-18-20/22b~--------------------| 
B|---------------------15-17-15-17-19-20----------------------------------| 
G|-14-16-18-16-18-19-21---------------------------------------------------| 
D|------------------------------------------------------------------------| 
A|------------------------------------------------------------------------| 
E|------------------------------------------------------------------------| 

e|------------------------------------------------------------------------| 
B|------------------------------------------------------------------------| 
G|------------------------------------------------------------------------| 
D|-/21\7-7h9h11-7h9h11-7h9-/14br~-12--------------------------------------| 
A|------------------------------------------------------------------------| 
E|------------------------------------------------------------------------| 

e|---------------------------------------------7b~7b7b7b7b7b~7b~-5p2-5p2-/19-17~--| 
B|-10b~--10b10b-10b-10b10b-5h7h10-5h7h10-5h7h10-----------------------------------| 
G|--------------------------------------------------------------------------------| 
D|--------------------------------------------------------------------------------| 
A|--------------------------------------------------------------------------------| 
E|--------------------------------------------------------------------------------| 

there is some heavy distortion during this riff 
e|--------------------------------------------------------------------------------------------| 
B|--------------------------------------------------------------------------------------------| 
G|-----------------------------------------------------3h4h6-6p4h6h7-6h7h9--------------------| 
D|------------------------------------------------4h6h7---------------------------------------| 
A|-/9-0-4-7-9-7------------------------------5h7h9--------------------------------------------| 
E|--------------0-2-7-2-5p2-2h4h5-4h5h7-5h7h9-------------------------------------------------| 

e|----------------------------------------------------------------| 
B|--------10h12h14/15b~-------------------------------------------| 
G|--8h9h11--------------------------------------------------------| 
D|----------------------------------------------------------------| 
A|----------------------------------------------------------------| 
E|----------------------------------------------------------------| 

solo cont(tapping) 
e|--------------------------7b~------------------------------------------------------------------| 
B|--t17p5-t10p5-t12p5-x?------------------------------------------4-6-7-6-4----------------------| 
G|---------------------------------9-9-9b~--7-7-6-9b-9-7-6--------------------7~~~---------------| 
D|------------------------------7-9-7-------------------------9-7--------------------------------| 
A|-----------------------------------------------------------------------------------------------| 
E|-----------------------------------------------------------------------------------------------| 

thats pretty much it. listen to the song a couple of times and it should fall into play. 
pretty sure its originally a synth solo so mess around with the sound and distortion to 
it soundin right. also play around with a whammy bar on some of the vibrato parts.  
questions or corrections 

| b  bend 
| /  slide up 
| \  slide down 
| h  hammer-on 
| p  pull-off 
| ~  vibrato 
| +  harmonic 
| x  Mute note 
=============================================================================== 

roll up this ad to continue

share this page

See Also: