E-Chords
Daft Punk

Crescendolls(Tabs)

Daft Punk

Crescendolls by Daft Punk 
from their album 'Discovery' (2001) 

e|------------------7--7--8--9--| 
B|-7--7--9--10--11--------------| 
G|------------------------------| 
D|------------------------------| 
A|------------------------------| 
E|------------------------------| 

this is followed by: 

e|------------------7--7--8--9--11--12--13--14--| 
B|-7--7--9--10--11------------------------------| 
G|----------------------------------------------| 
D|----------------------------------------------| 
A|----------------------------------------------| 
E|----------------------------------------------| 

just repeat those two licks over and over. 
make sure to listen to the song to get the rhythm. 

roll up this ad to continue

share this page

See Also: