E-Chords
Daft Punk

Contact(Tabs)

Daft Punk

Key: E
Lead Guitar  
e|---------------------------------------------------------------------------| 
B|---------------------------------------------------------------------------| 
G|---------------------------------------------------------------------------| 
D|---------9--12---------9--12---------9--12----------9--12------------------| 
A|--9--12---------9--12---------9--12----------9--12-------------------------| 
E|---------------------------------------------------------------------------| 

e|---------------------------------------------------------------------------| 
B|---------------------------------------------------------------------------| 
G|---------------------------------------------------------------------------| 
D|----------9--12----------9--12----------9--12----------9--12---------------| 
A|--10--12---------10--12---------10--12---------10--12----------------------| 
E|---------------------------------------------------------------------------| 

e|---------------------------------------------------------------------------| 
B|---------------------------------------------------------------------------| 
G|-----7--9--11-----7--9--11-----7--9--12------7--9--11----------------------| 
D|--9------------9------------9-------------9--------------------------------| 
A|---------------------------------------------------------------------------| 
E|---------------------------------------------------------------------------| 

e|---------------------------------------------------------------------------| 
B|---------------------------------------------------------------------------| 
G|---------------------------------------------------------------------------| 
D|-----7--9--11-----7--9--11-----7--9--11-----7--9--11-----------------------| 
A|--9------------9------------9------------9---------------------------------| 
E|---------------------------------------------------------------------------| 

Rythem Getar (Really fast fill) 
e|---------------|-----------------------------------------------------------| 
G|---------------|-----------------------------------------------------------| 
D|--5-2----------|---4----------5----------4--------2------------------------| 
A|------3-0------|---2----------2----------0--------0------------------------| 
E|---------------|-----------------------------------------------------------| 

e|------------|---------------------------------------------------------------| 
B|------------|---------------------------------------------------------------| 
G|-Look-^-----|---------------------------------------------------------------| 
D|-up---|-----|-----14----------15----------14-------12-----------------------| 
A|------------|-----12----------12----------10-------10-----------------------| 
E|------------|---------------------------------------------------------------| 

Bass 

G|---------------------------------------------------------------------------| 
D|---------------------------------------------------------------------------| 
A|---------------------------------------------------------------------------| 
E|-------------------7------------7-----------5--------5---------------------| 

use root note of Chord for bass, play on up beat later in the song 
e|---------------------------------------------------------------------------| 
B|---------------------5-----------------------------------------------------| 
G|----7--------3-------5--------5--------------------------------------------| 
D|----7--------3-------3--------5--------------------------------------------| 
A|----5--------1----------------3--------------------------------------------| 
E|---------------------------------------------------------------------------| 
Note: the third chord has an out-of-tune octave (on the high E) that gives it nice 
  shape in this octave, and octave lower would sound better without the F flat(E)  


 

roll up this ad to continue

share this page

See Also: