E-Chords
Cuphead

Die House(Tabs)

Cuphead

roll up this ad to continue

Key: G
E|--0--------------0---------0---0--------------| 
B|-----3---1---3----------1---------3---1---0---| 
G|---------------------2------------------------| 
D|----------------------------------------------| 
A|----------------------------------------------| 
E|----------------------------------------------| 

E|--0--------------0---------1-1-----------------| 
B|-----3---1---3----------1---------1--0---------| 
G|---------------------2------------------2------| 
D|-----------------------------------------------| 
A|-----------------------------------------------| 
E|-----------------------------------------------| 
 
share this page

See Also: