E-Chords
Cults

Oh My God(Tabs)

Cults

roll up this ad to continue

Verse 

Oh my god, I'm stuck inside the same position 
E|----8--------------------------------------| 
B|-------10---10--8------8--10--8------------| 
G|-------------------10-----------10--7--10--| 
D|-------------------------------------------| 
A|-------------------------------------------|  
E|-------------------------------------------| 

I'm so tired of sitting around here with my boring life 
E|----8------------------------------------------8----| 
B|-------10---10--8------8--10--8-------------8----10-| 
G|-------------------10-----------10--7^--10----------| 
D|----------------------------------------------------| 
A|----------------------------------------------------| 
E|----------------------------------------------------| 

Wishing I could find another name to go by 
E|----8--------------------------------------| 
B|-------10---10--8------8--10--8------------| 
G|-------------------10-----------10--7--10--| 
D|-------------------------------------------| 
A|-------------------------------------------|  
E|-------------------------------------------| 

Late at night I'm dreaming about a time where I could change my side 
E|----8------------------------------------------8----| 
B|-------10---10--8------8--10--8-------------8----10-| 
G|-------------------10-----------10--7^--10----------| 
D|----------------------------------------------------| 
A|----------------------------------------------------| 
E|----------------------------------------------------|  


Chorus 

Please don't tell me you know the rules to go by 
E|----8--------------------------------------| 
B|-------10---10--8------8--10--8------------| 
G|-------------------10-----------10--7--10--| 
D|-------------------------------------------| 
A|-------------------------------------------|  
E|-------------------------------------------| 

I can run away and leave you anytime 
E|----88----10--8--------------------------------8----| 
B|-------10--------10--8----10--8-------------8----10-| 
G|------------------------10------10--7^--10----------| 
D|----------------------------------------------------| 
A|----------------------------------------------------| 
E|----------------------------------------------------| 

Please don't tell me you know the plans for my life 
E|----8--------------------------------------| 
B|-------10---10--8------8--10--8------------| 
G|-------------------10-----------10--7--10--| 
D|-------------------------------------------| 
A|-------------------------------------------|  
E|-------------------------------------------| 

I can run away and leave you here to stay inside dreaming 
E|----88----10--8--------------------------------8----| 
B|-------10--------10--8----10--8-------------8----10-| 
G|------------------------10------10--7^--10----------| 
D|----------------------------------------------------| 
A|----------------------------------------------------| 
E|----------------------------------------------------| 


 
share this page

See Also: