E-Chords
Crywank

You Wont Meet A Girl Sat In Your Room But Some Songs Can Still Give You Butterflies(Tabs)

Crywank

Verse: 
e----------------------------------------| 
b----------------------------------------| 
g---0-----------2------4-----------------| 
d---4- (x8)-----0-(x8)-0--(x16)----------| 
a----------------------------------------| 
e----------------------------------------| 

This is the verse, and the Chorus is exactly the same just half the amount of strikes of each part: 

Chorus: 
e---------------------------------------| 
b---------------------------------------| 
g---0-----------2------4----------------| 
d---4- (x4)-----0-(x4)-0--(x8)----------| 
a---------------------------------------| 
e---------------------------------------| 

roll up this ad to continue

share this page

See Also: