E-Chords
Crywank

You Couldn't Teach Me Integrity(Tabs)

Crywank

Tuning: eBGDAE (Standard) 

The whole song is only played with the three same chords, I'll let you figure out the strumming pattern. 

e|---------------------------------------------------------------------------| 
B|---------------------------------------------------------------------------| 
G|------0--------0--------0--------------------------------------------------| 
D|------5--------7--------7--------------------------------------------------| 
A|------7--------5--------0--------------------------------------------------| 
E|---------------------------------------------------------------------------| 

I think the above is how it's meant to be played, but in the recording there is a higher note that it sounds 
like he keeps hitting by accident. I prefer to play the song the way shown below because I think the song 
sounds better with the added open B. 

e|---------------------------------------------------------------------------| 
B|------0--------0--------0--------------------------------------------------| 
G|------0--------0--------0--------------------------------------------------| 
D|------5--------7--------7--------------------------------------------------| 
A|------7--------5--------0--------------------------------------------------| 
E|---------------------------------------------------------------------------| 

Hope this helped and God bless you James. 

roll up this ad to continue

share this page

See Also: