E-Chords
Crywank

Waste(Tabs)

Crywank

Intro/Verse 

Part 1: 
e|---------------------------------------------------------| 
B|---0-----0-----0-----0-----0-----0-----0-----0-----------| 
G|--0-0---0-0---0-0---0-0---0-0---0-0---0-0---0-0----------|  x2 as Intro 
D|---------------------------------------------------------|  x4 with lyrics 
A|7-----5-----7-----5-----2-----9-----2-----10-------------|   
E|---------------------------------------------------------| 


Part 2: 
e|--------------------------------------------------------------------------------------------0----| 
B|---0-----0-----0-----0-----0-----0-----0-----0-----0-----0-----3-----3-----0-----0-----3--3------| 
G|--0-0---0-0---0-0---0-0---0-0---0-0---0-0---0-0---0-0---0-0---0-0---0-0---0-0---0-0---0-0--------| 
D|-------------------------------------------------------------------------------------------------|  x2 
A|7-----7-----7-----7-----5-----5-----5-----5-----3-----3-----3-----3-----3-----3-----3------------| 
E|-------------------------------------------------------------------------------------------------| 

roll up this ad to continue

share this page

See Also: