E-Chords
Crywank

There All Is Aching(Tabs)

Crywank

Key: B
Intro 

e|---------------------------------------------------| 
B|-----------0------------0-----------0-----------0--| 
G|-----0------------0-----------0-----------0--------| 
D|---0-----0------0-----0-----0-----0-----0-----0----| 
A|-7-----7-----10-----9-----0-----5-----2-----2------| 
E|---------------------------------------------------| 


e|-------------------------------------------------------------------------| 
B|-----------0-----------0-----------0-----------0-----------0----------0--| 
G|-----0-----------0-----------0-----------0-----------0----------0--------| 
D|---0-----0-----0-----0-----0-----0-----0-----0-----0-----0----0-----0----| 
A|-5-----4-----0-----2-----------------------------------------------------| 
E|-------------------------3-----3-----3-----3-----2-----2-----2----2------|(x5) 

The vocals come in on the third time this main riff is played. 


I'll call this the Pre-Chorus riff 

e|----------------| 
B|-----------7----| 
G|-----0----------| 
D|---9-----9------| 
A|----------------| 
E|-0-----0--------|(x8) 

When you hit the 7th fret on the B string don't sustain the note, ie. lift you're finger off the fret 
quickly after hitting the note, there's a video of James Clayton playing the song on the Crywank youtube 
channel so i know that this is correct. 


Chorus 

e|------------------------------------------------------------------------------------------------------| 
B|------------------------------------------------------------------------------------------------------| 
G|------9------9------9------0-----7-----7-----7-----0-----5-----5-----5-----0-----4-----4-----4-----0--| 
D|------------------------------------------------------------------------------------------------------| 
A|---10-----10-----10-----10-----9-----9-----9-----9-----7-----7-----7-----7-----5-----5-----5-----5----| 
E|-0------0------0------0------0-----0-----0-----0-----0-----0-----0-----0-----0-----0-----0-----0------|(x4) 



Pre-outro...cool...thing 

e|-------------------|-----------------------------------------------------| 
B|-------------------|------------7-----------7-----------7-----------7----| 
G|-----0-------0-----|------0-----------0-----------0-----------0----------| 
D|---0---0---0---0---|----9-----9-----9-----9-----9-----9-----9-----9------| 
A|-------------------|-----------------------------------------------------| 
E|-3-------2---------|--0-----0-----0-----0-----0-----0-----0-----0--------|(x3) 


e|-------------------| 
B|-------------------| 
G|-----0-------0-----| 
D|---0---0---0---0---| 
A|-------------------| 
E|-3-------2---------|(x1) 


e|---------------------------------------------------| 
B|-----------0------------0-----------0-----------0--| 
G|-----0------------0-----------0-----------0--------| 
D|---0-----0------0-----0-----0-----0-----0-----0----| 
A|-7-----7-----10-----9-----0-----5-----2-----2------| 
E|---------------------------------------------------| 


e|-------------------------------------------------------------------------| 
B|-----------0-----------0-----------0-----------0-----------0----------0--| 
G|-----0-----------0-----------0-----------0-----------0----------0--------| 
D|---0-----0-----0-----0-----0-----0-----0-----0-----0-----0----0-----0----| 
A|-5-----4-----0-----2-----------------------------------------------------| 
E|-------------------------3-----3-----3-----3-----2-----2-----2----2------|(x1) 


Outro 

e|----------------------------------------------------------------------------------------------------| 
B|-----------0-----------0----------0-------------------------0-----------0---------------------------| 
G|-----0-----------0----------0-------------------------0-----------0---------------------------------| 
D|---8-----8-----8-----8----8-----8-------0-----0-----8-----8-----8-----8-------0-----0-----0-----0---| 
A|-7-----7-----7-----7----7-----7-------5-----5-----7-----7-----7-----7-------5-----5-----7-----7-----| 
E|------------------------------------3-----3-------------------------------3-----3-----5-----5-------|(x2) 


e|-------| 
B|-------| 
G|-------| 
D|-9-----| 
A|-7-----| 
E|-0-----| 



************************************ 

| x   Dead note 
| g   Grace note 
| (n) Ghost note 
| h   Hammer-on 
| p   Pull-off 
| r   Release 
| >   Accented note 
| t   Tapping 
| b   Bend 
| br  Bend release 
| pb  Pre-bend 
| pbr Pre-bend release 
| /   Slide up 
| \   Slide down 
| ~   Vibrato 
| s   Slap 
| P   Pop 
| PM  Palm mute 
| TR  Trill 
| N   Tremolo 

************************************ 

roll up this ad to continue

share this page

See Also: