E-Chords
Crywank

Privatley Owned Spiral Galaxy(Tabs)

Crywank

Intro/verse 

e|---------------------------------------------------------------------------| 
B|---------------------------------------------------------------------------| 
G|---------------------------------------------------------------------------| 
D|---------------------------------------------------------------------------| 
A|---11-------11--------7-------7--------6-----------------------------------| 
E|-9--------0---------5-------0-------4--------------------------------------| 



Chorusbasically the screaming part 

e|---------------------------------------------------------------------------| 
B|---------------------------------------------------------------------------| 
G|---------------------------------------------------------------------------| 
D|---------------------------------------------------------------------------| 
A|--11--11--7--7-------------------------------------------------------------| 
E|--9---0---5--0-------------------------------------------------------------|  

roll up this ad to continue

share this page

See Also: