E-Chords
Crywank

Leech Boy(Tabs)

Crywank

Tuning:Standard 

e|---------------------------------------------------------------------------| 
B|---------------------------------------------------------------------------| 
G|---------------------------------------------------------------------------| 
D|---------------------------------------------------------------------------| 
A|---0h2---2h3---3h2---2---2---2---2---2-------------------------------------| 
E|-0-----0-----0-----0---3---3---3---3---------------------------------------|X22 

After playing this 22 times the Chorus kicks in: 

Chorus                                          Chorus outro 
e|---------------------------------|            |----------------------------| 
B|-----------0---------------------|            |----------------------------| 
G|---------------0-----------------|            |----------------------------| 
D|-----0---0-----------0-----0-----|            |-0--------------------------| 
A|---2---3-----3-----2-----0-----0-|            |-2--------------------------| 
E|-0---------------3-----2-----2---|X7          |-0--------------------------| 
'As i get older i also worsen...'               'Manchild' 

Play the Chorus 6 times then end on the chord shown above 

e|---------------------------------------------------------------------------| 
B|---------------------------------------------------------------------------| 
G|---------------------------------------------------------------------------| 
D|---------------------------------------------------------------------------| 
A|---0h2---2h3---3h2---2---2---2---2---2-------------------------------------| 
E|-0-----0-----0-----0---3---3---3---3---------------------------------------|X20 

Chorus                                          Chorus outro 
e|---------------------------------|            |----------------------------| 
B|-----------0---------------------|            |----------------------------| 
G|---------------0-----------------|            |----------------------------| 
D|-----0---0-----------0-----0-----|            |-0--------------------------| 
A|---2---3-----3-----2-----0-----0-|            |-2--------------------------| 
E|-0---------------3-----2-----2---|X7          |-0--------------------------| 
'As i get older i also worsen...'               'Manchild' 

 

roll up this ad to continue

share this page

See Also: