E-Chords
Crywank

Its Ok I Wouldn't Remember Me Either(Tabs)

Crywank

e|-------------------------------------------------------------------------------------------------| 
B|-------------------------------------------------------------------------------------------------| 
G|-------------------------------------------------------------------------------------------------| X4 
D|-------------------------------------------------------------------------------------------------| 
A|----5---5---5---5-----5---5---5---5-----5---5---5---5-----7---7---7---7--------------------------| 
E|--7---7---7---7-----2---2---2---2-----5---5---5---5-----5---5---5---5----------------------------| 

e|-------------------------------------------------------------------------------------------------| 
B|-------------------------------------------------------------------------------------------------| 
G|-------------------------------------------------------------------------------------------------| X2 
D|-------------------------------------------------------------------------------------------------| 
A|--5--5--5--7-------------------------------------------------------------------------------------| 
E|--7--2--5--5-------------------------------------------------------------------------------------| 

e|-------------------------------------------------------------------------------------------------| 
B|-------------------------------------------------------------------------------------------------| 
G|-------------------------------------------------------------------------------------------------| X4 
D|-------------------------------------------------------------------------------------------------| 
A|----5---5---5---5-----5---5---5---5-----5---5---5---5-----7---7---7---7--------------------------| 
E|--7---7---7---7-----2---2---2---2-----5---5---5---5-----5---5---5---5----------------------------| 

e|-------------------------------------------------------------------------------------------------| 
B|-------------------------------------------------------------------------------------------------| 
G|-------------------------------------------------------------------------------------------------| X2 
D|-------------------------------------------------------------------------------------------------| 
A|--5--5--5--7-------------------------------------------------------------------------------------| 
E|--7--2--5--5-------------------------------------------------------------------------------------| 

e|-------------------------------------------------------------------------------------------------| 
B|-------------------------------------------------------------------------------------------------| 
G|-------------------------------------------------------------------------------------------------| X8 
D|-------------------------------------------------------------------------------------------------| 
A|-55555555-55555555-555555555-77777777------------------------------------------------------------| 
E|-77777777-22222222-555555555-55555555------------------------------------------------------------| 

e|-------------------------------------------------------------------------------------------------| 
B|-------------------------------------------------------------------------------------------------| 
G|-------------------------------------------------------------------------------------------------| X2 
D|-------------------------------------------------------------------------------------------------| 
A|--5--5--5--7-------------------------------------------------------------------------------------| 
E|--7--2--5--5-------------------------------------------------------------------------------------| 

e|-------------------------------------------------------------------------------------------------| 
B|-------------------------------------------------------------------------------------------------| 
G|-------------------------------------------------------------------------------------------------| X4 
D|-------------------------------------------------------------------------------------------------| 
A|----5---5---5---5-----5---5---5---5-----5---5---5---5-----7---7---7---7--------------------------| 
E|--7---7---7---7-----2---2---2---2-----5---5---5---5-----5---5---5---5----------------------------| 
 

roll up this ad to continue

share this page

See Also: