E-Chords
Crywank

Forlorn Leghorn(Tabs)

Crywank

Intro 

e|-------------------------0-------------------| 
B|---------------3---3---3-----3-----3---------| 
G|-----0---0---0---0---0-----0-----0-----------| 
D|---4---4---4-------------------4-------4-----| 
A|-5-----------------------------------0-------| 
E|---------------------------------------------|(x16) 


Verse 

e|-----------------------------------------------------------------------| 
B|-----------------------------------------------------------------------| 
G|-----------------------------------------------------------------------| 
D|---4---4---4---4---4---4---4---0---0---0---0---0---0---0---0---0-------| 
A|-5---5---5---5---5---5---5---0---2---2---2---2---2---2---2---0---------| 
E|-----------------------------------------------------------------------|(x16) 


e|-----------------------------------------------------------------------| 
B|-----------------------------------------------------------------------| 
G|-----------------------------------------------------------------------| 
D|---4---4---4---4---4---4---4---0---0---0---0---0---0---0---0---0-------| 
A|-5---5---5---5---5---5---5---0---2---2---2---2---2---2---2---2---------| 
E|-----------------------------------------------------------------------|(x1) 


Interlude 

e|---------------------0------------------| 
B|-------------0^3---3-----3--------------| 
G|-----0^2---2-----------------2----------| 
D|---0-----0-------0-----0---0-----0------| 
A|-2-----------------------------2--------| 
E|----------------------------------------|(x16) 

e|---------------------0------------------| 
B|-------------0^3---3-----3-----3--------| 
G|-----0^2---2-----------------2----------| 
D|---0-----0-------0-----0---0------------| 
A|-2--------------------------------------| 
E|----------------------------------------|(x1) 


Outro 

e|---------0-----------| 
B|---------------3-----| 
G|---2---2-----2-------| 
D|-0---0-----0---------| 
A|---------------------| 
E|---------------------|(x4) 

e|---------2-----------| 
B|---------3-----3-----| 
G|---0---0-----0-------| 
D|-0---0-----0---------| 
A|---------------------| 
E|---------------------|(x4) 

e|---------0-----------| 
B|---------------3-----| 
G|---2---2-----2-------| 
D|-0---0-----0---------| 
A|---------------------| 
E|---------------------|(x4) 

e|-----------0---------| 
B|-----3---3-----3-----| 
G|---0---0-----0-------| 
D|-2-------------------| 
A|---------------------| 
E|---------------------|(x3) 

e|-------0-------------| 
B|-----3---0-----------| 
G|---0---------0-------| 
D|-2-----------4-------| 
A|-------------5-------| 
E|-------------5-------|(x3) 

Lyrics: 


************************************ 
  
| ^   Hammer-on  

************************************ 

roll up this ad to continue

share this page

See Also: