E-Chords
Crywank

Crywank Are Posers(Tabs)

Crywank

e|---------------------------------------------------------------------------| 
B|-----------------0---------------------------------------------------------| 
G|-----------0---0-----0-----0-----------------------------------------------| 
D|-----0---0---0-----0-----0-----0-------------------------------------------| 
A|---9---9---------------9-----9---------------------------------------------| 
E|-7-------------------------------------------------------------------------|X2 

e|----------------------------------|----------------------------------------| 
B|-----------------7----------------|-----------------0----------------------| 
G|-----------0---0-----0-----0------|-----------7---7-----7-----7------------| 
D|-----0---0---0-----0-----0-----0--|-----0---0---0-----0-----0-----0--------| 
A|---9---9---------------9-----9----|---9---9---------------9-----9----------| 
E|-0--------------------------------|-0--------------------------------------|X1 

Play this entire part 4 times, after playing the entire part twice the singing comes in 
then the riff changes to: 

e|---------------------------------------------------------------------------| 
B|---------------------------------------------------------------------------| 
G|-----------0---------------0---------------0---------------0---------------| 
D|-----0---0-----0-----0---0-----0-----0---0-----0-----0---0-----0-----------| 
A|---5---5-----5-----5---5-----5-----5---5-----5-----5---5-----5-------------| 
E|-3---------------3---------------3---------------3-------------------------| 
'I can try harder, i can be better, i can do more, but i know 

e|----------------------------------|----------------------------------------| 
B|-----------------7----------------|-----------------0----------------------| 
G|-----------0---0-----0-----0------|-----------7---7-----7-----7------------| 
D|-----0---0---0-----0-----0-----0--|-----0---0---0-----0-----0-----0--------| 
A|---9---9---------------9-----9----|---9---9---------------9-----9----------| 
E|-0--------------------------------|-0--------------------------------------| 
I won't' 

e|---------------------------------------------------------------------------| 
B|---------------------------------------------------------------------------| 
G|-----------0---------------0---------------0---------------0---------------| 
D|-----0---0-----0-----0---0-----0-----0---0-----0-----0---0-----0-----------| 
A|---5---5-----5-----5---5-----5-----5---5-----5-----5---5-----5-------------| 
E|-3---------------3---------------3---------------3-------------------------| 
'And I know apathy, and I know acceptance and a lack of motivation is what 

e|----------------------------------|----------------------------------------| 
B|-----------------7----------------|-----------------0----------------------| 
G|-----------0---0-----0-----0------|-----------7---7-----7-----7------------| 
D|-----0---0---0-----0-----0-----0--|-----0---0---0-----0-----0-----0--------| 
A|---9---9---------------9-----9----|---9---9---------------9-----9----------| 
E|-0--------------------------------|-0--------------------------------------| 
they want' 

e|---------------------------------------------------------------------------| 
B|-----------0---------------0---------------0---------------0---------------| 
G|-----0---0-----0-----0---0-----0-----0---0-----0-----0---0-----0-----------| 
D|---------------------------------------------------------------------------| 
A|---9---9-----9-----9---9-----9-----9---9-----9-----9---9-----9-------------| 
E|-7---------------7---------------7---------------7-------------------------| 
'I can have beliefs and I can wear them on my sleeve but i will do nothing about them just  
stay in an look at screens oh 

e|---------------------------------------------------------------------------| 
B|-----------7---------------0---------------7---------------0---------------| 
G|-----0---0-----0-----7---7-----0-----0---0-----0-----7---7-----0-----------| 
D|---------------------------------------------------------------------------| 
A|---9---9-----9-----9---9-----9-----9---9-----9-----9---9-----9-------------| 
E|-0---------------0---------------0---------------0-------------------------| 
this life, spent basking in the blue light' 

e|---------------------------------------------------------------------------| 
B|-----------0---------------0---------------0---------------0---------------| 
G|-----0---0-----0-----0---0-----0-----0---0-----0-----0---0-----0-----------| 
D|---------------------------------------------------------------------------| 
A|---9---9-----9-----9---9-----9-----9---9-----9-----9---9-----9-------------| 
E|-7---------------7---------------7---------------7-------------------------| 
'I can speak of change but in the end i feel ashamed because although i can explain  
i do not act on what I say a waste 

e|---------------------------------------------------------------------------| 
B|-----------7---------------0---------------7---------------0---------------| 
G|-----0---0-----0-----7---7-----0-----0---0-----0-----7---7-----0-----------| 
D|---------------------------------------------------------------------------| 
A|---9---9-----9-----9---9-----9-----9---9-----9-----9---9-----9-------------| 
E|-0---------------0---------------0---------------0-------------------------| 
of time, is hearing what is on my 

e|---------------------------------------------------------------------------| 
B|---------------------------------------------------------------------------| 
G|-----------4---------------4---------------4---------------4---------------| 
D|-----5---5-----5-----5---5-----5-----5---5-----5-----5---5-----5-----------| 
A|---5---5-----5-----5---5-----5-----5---5-----5-----5---5-----5-------------| 
E|-3---------------3---------------3---------------3-------------------------| 
mind, mind, active trapped inside 

e|---------------------------------------------------------------------------| 
B|-----------7---------------0---------------7---------------0---------------| 
G|-----0---0-----0-----7---7-----0-----0---0-----0-----7---7-----0-----------| 
D|---------------------------------------------------------------------------| 
A|---9---9-----9-----9---9-----9-----9---9-----9-----9---9-----9-------------| 
E|-0---------------0---------------0---------------0-------------------------| 
a stationary body' 

e|---------------------------------------------------------------------------| 
B|---------------------------------------------------------------------------| 
G|-----------4---------------4---------------4---------------4---------------| 
D|-----5---5-----5-----5---5-----5-----5---5-----5-----5---5-----5-----------| 
A|---5---5-----5-----5---5-----5-----5---5-----5-----5---5-----5-------------| 
E|-3---------------3---------------3---------------3-------------------------| 
'Down, down, down and out i 

e|---------------------------------------------------------------------------| 
B|-----------7---------------0---------------7---------------0---------------| 
G|-----0---0-----0-----7---7-----0-----0---0-----0-----7---7-----0-----------| 
D|---------------------------------------------------------------------------| 
A|---9---9-----9-----9---9-----9-----9---9-----9-----9---9-----9-------------| 
E|-0---------------0---------------0---------------0-------------------------| 
feel a constant sense of waiting' 

e|---------------------------------------------------------------------------| 
B|---------------------------------------------------------------------------| 
G|---------------------------------------------------------------------------| 
D|-----0-----0---------0-----0---------0-----0---------0-----0---------------| 
A|---9-----9-----9---9-----9-----9---9-----9-----9---9-----9-----9-----------| 
E|-7-----7-----7---7-----7-----7---7-----7-----7---7-----7-----7-------------| 

e|---------------------------------------------------------------------------| 
B|---------------------------------------------------------------------------| 
G|---------------------------------------------------------------------------| 
D|-----0-----0---------0-----0---------0-----0---------0-----0---------------| 
A|---5-----5-----5---5-----5-----5---5-----5-----5---5-----5-----5-----------| 
E|-3-----3-----3---3-----3-----3---0-----0-----0---0-----0-----0-------------| 

This entire part is played four times altogether (not each riff played four times) the singing comes in 
on the last two times this part is played. 

Outro: 

e|---------------------------------------------------------------------------| 
B|-----------------0---------------------------------------------------------| 
G|-----------0---0-----0-----0-----------------------------------------------| 
D|-----0---0---0-----0-----0-----0-------------------------------------------| 
A|---9---9---------------9-----9---------------------------------------------| 
E|-7-------------------------------------------------------------------------|X2 

e|----------------------------------|----------------------------------------| 
B|-----------------7----------------|-----------------0----------------------| 
G|-----------0---0-----0-----0------|-----------7---7-----7-----7------------| 
D|-----0---0---0-----0-----0-----0--|-----0---0---0-----0-----0-----0--------| 
A|---9---9---------------9-----9----|---9---9---------------9-----9----------| 
E|-0--------------------------------|-0--------------------------------------|X1 

e|---------------------------------------------------------------------------| 
B|-----------------0---------------------------------------------------------| 
G|-----------0---0-----0-----0-----------------------------------------------| 
D|-----7---7---7-----7-----7-----7-------------------------------------------| 
A|---9---9---------------9-----9---------------------------------------------| 
E|-0-------------------------------------------------------------------------|X4 

e|---------------------------------------------------------------------------| 
B|-----------------0---------------------------------------------------------| 
G|-----------0---0-----0-----0-----------------------------------------------| 
D|-----0---0---0-----0-----0-----0-------------------------------------------| 
A|---9---9---------------9-----9---------------------------------------------| 
E|-7-------------------------------------------------------------------------|X4 


e|---------------------------------------------------------------------------| 
B|-----------------0---------------------------------------------------------| 
G|-----------0---0-----0-----0-----------------------------------------------| 
D|-----7---7---7-----7-----7-----7-------------------------------------------| 
A|---9---9---------------9-----9---------------------------------------------| 
E|-0-------------------------------------------------------------------------|X4 
(this riff isn't 100% correct if you listen to the track James plucks the A string differently 
as the riff progresses) 

e|---------------------------------------------------------------------------| 
B|-----------------0---------------------------------------------------------| 
G|-----------0---0-----0-----0-----------------------------------------------| 
D|-----0---0---0-----0-----0-----0-------------------------------------------| 
A|---9---9---------------9-----9---------------------------------------------| 
E|-7-------------------------------------------------------------------------|X3 

e|---------------------------------------------------------------------------| 
B|-----------------0---------------------------------------------------------| 
G|-----------0---0-----------------------------------------------------------| 
D|-----0---0---0-------------------------------------------------------------| 
A|---9---9-------------------------------------------------------------------| 
E|-7-------------------------------------------------------------------------|X4 

 

roll up this ad to continue

share this page

See Also: