E-Chords
Crywank

A Deer Mistaking Candles For Headlights(Tabs)

Crywank

Intro 

e|--------------------------------------------------------------------------------------------| 
B|-------------------------------3-------------------------------------3-----------3----------| 
G|-----3-----------0-----------0---0---0-----3-----------0-----------0---0---0---0---0---0----| 
D|---0---0---0---0---0---0---5-------5-----0---0---0---0---0---0---5-------5---5-------5------| 
A|-6-------6---3-------3-----------------6-------6---3-------3--------------------------------| 
E|--------------------------------------------------------------------------------------------|(x4) 


e|-------------------------------------------------------------------------------------------------------| 
B|-------------------------------3-------------------------------------3-----------3-----------3---------| 
G|-----3-----------0-----------0---0---0-----3-----------0-----------0---0---0---0---0---0---0---0---0---| 
D|---0---0---0---0---0---0---5-------5-----0---0---0---0---0---0---5-------5---5-------5---5-------5---5-| 
A|-6-------6---3-------3-----------------6-------6---3-------3-------------------------------------------| 
E|-------------------------------------------------------------------------------------------------------|(x1) 


Chorus 

e|----------------------------------------------------| 
B|----------------------------------------------------| 
G|-----5-----------3-----------2----------------------| 
D|---0---0---0---7---7---0---0---0---0---0---0---0----| 
A|-8-------8---0-------0---5-------0-------8---0------| 
E|-------------------------------------6--------------|(x10) 


Bridge 

e|--------------------------------------------------------------| 
B|--------------------------------------------------------------| 
G|--------------------7---------------------------7-------------| 
D|----0---0----0----0---0----0----0---0----0----0---0----0------| 
A|------8---------------------------8---------------------------| 
E|-10-------10---10-------10---10-------10---10-------10--------|(x1) 


e|--------------------------------------------------------------| 
B|--------------------------------------------------------------| 
G|-----------------5-----------------------5--------------------| 
D|---0---0---0---0---0---0---0---0---0---0---0---0--------------| 
A|-----8-----------------------8--------------------------------| 
E|-8-------8---8-------8---8-------8---8-------8----------------|(x1) 


e|--------------------------------------------------------------| 
B|--------------------------------------------------------------| 
G|-----------------4-----------------------4--------------------| 
D|---0---0---0---0---0---0---0---0---0---0---0---0---3----------| 
A|-----8-----------------------8---------------------0----------| 
E|-7-------7---7-------7---7-------7---7-------7-----5----------|(x1) 

                                                    'That i said i was' 
Verse 

e|--------------------------------------------------------------------------------------------| 
B|-------------------------------3-------------------------------------3-----------3----------| 
G|-----3-----------0-----------0---0---0-----3-----------0-----------0---0---0---0---0---0----| 
D|---0---0---0---0---0---0---5-------5-----0---0---0---0---0---0---5-------5---5-------5------| 
A|-6-------6---3-------3-----------------6-------6---3-------3--------------------------------| 
E|--------------------------------------------------------------------------------------------|(x3) 



Outro 

e|----------------------------------------------------| 
B|-----------------4-----------------------3----------| 
G|-----3-----------------------2----------------------| 
D|---0---0---0---0---0---0---0---0---0---0---0---0----| 
A|-6-------6---6-------6---5-------5---5-------5------| 
E|----------------------------------------------------|(x5) 


e|------------------------------------------| 
B|-----------------4-------------------3----| 
G|-----3-----------------------2------------| 
D|---0---0---0---0---0---0---0---0---0------| 
A|-6-------6---6-------6---5-------5--------| 
E|------------------------------------------|(x1) 

************************************ 

| x   Dead note 
| g   Grace note 
| (n) Ghost note 
| h   Hammer-on 
| p   Pull-off 
| r   Release 
| >   Accented note 
| t   Tapping 
| b   Bend 
| br  Bend release 
| pb  Pre-bend 
| pbr Pre-bend release 
| /   Slide up 
| \   Slide down 
| ~   Vibrato 
| s   Slap 
| P   Pop 
| PM  Palm mute 
| TR  Trill 
| N   Tremolo 

************************************ 

roll up this ad to continue

share this page

See Also: