E-Chords
Crystal Castles

Not In Love(Tabs)

Crystal Castles

roll up this ad to continue

Key: E
                                 Intro/Verse 

e|--------------------------------------------------------------------------| 
B|--7---10-9-7-10-9---7--10-9-7-10-9---7--10-9-7-10-9---7--10-9-7-10-9------| 
G|-7-7---------------9-9--------------6-6--------------6-6------------------| 
D|--------------------------------------------------------------------------| 
A|--------------------------------------------------------------------------| 
E|--------------------------------------------------------------------------| 
  I saw your...      Hanging on..     Door.. 


                                Chorus 


e|--------------------------------------------------------------------------| 
B|-10-10-10-9-9-9-10-9---10-10-10-9-9-9-10-9---10~~-7~~-10~~-7~~------------| 
G|-9--9--9--9-9-9-9--9---9--9--9--9-9-9-9--9---6-~~-6~~-6-~~-6~~------------| 
D|--------------------------------------------------------------------------| 
A|--------------------------------------------------------------------------| 
E|--------------------------------------------------------------------------| 
  ..cold outside         When you coming home? 


                            Outro Synth 

           .        . 
e|--------13-------13-------------------------------------------------------| 
B|---9-10-----9-10----10-9-------Repeat until finish------------------------| 
G|--------------------------------------------------------------------------| 
D|--------------------------------------------------------------------------| 
A|--------------------------------------------------------------------------| 
E|--------------------------------------------------------------------------|  
share this page

See Also: