E-Chords
Crisis Of Conformity

Fist Fight(Tabs)

Crisis Of Conformity

Key: C

roll up this ad to continue

        Intro 

e|---------------------------------------------------------------------------| 
B|---------------------------------------------------------------------------| 
G|5-----6--------------------------------------------------------------------| 
D|5-5-6-6--------------------------------------------------------------------| 
A|3-5-6-4--------------------------------------------------------------------| 
E|--3-4----------------------------------------------------------------------| 
x1 

verse 1 

e|----------------------------------------------------------------------------------| 
B|----------------------------------------------------------------------------------| 
G|6-6-6-6-6-6-6-6-7-7-7-6-6-6-6-6-6-6-6-7-7-7-6-6-6-6-6-6-6-6-7-7-7-6-6-6-6-6-6-6-6-| 
D|6-6-6-6-6-6-6-6-7-7-7-6-6-6-6-6-6-6-6-7-7-7-6-6-6-6-6-6-6-6-7-7-7-6-6-6-6-6-6-6-6-| 
A|4-4-4-4-4-4-4-4-5-5-5-4-4-4-4-4-4-4-4-5-5-5-4-4-4-4-4-4-4-4-5-5-5-4-4-4-4-4-4-4-4-| 
E|----------------------------------------------------------------------------------| 
x1 

e|---------------------------------------------------------------------------| 
B|---------------------------------------------------------------------------| 
G|------------------------7-7-7-6-6-6-6-6-6-6-6-7-7-7------------------------| 
D|0-0-0-0-0-0-0-0-0-0-0-0-7-7-7-6-6-6-6-6-6-6-6-7-7-7------------------------| 
A|0-0-0-0-0-0-0-0-0-0-0-0-5-5-5-4-4-4-4-4-4-4-4-5-5-5------------------------| 
E|0-0-0-0-0-0-0-0-0-0-0-0----------------------------------------------------| 
  * * * * * * * * * * * *  
x4 

Chorus 

e|---------------------------------------------------------------------------| 
B|---------------------------------------------------------------------------| 
G|---------------------------------------------------------------------------| 
D|7-7-7-7-7-7-7-7-7-7-7-7-7-7-7-7-7-7-7-7-7-7--------------------------------| 
A|7-7-7-7-7-7-7-7-7-7-7-7-7-7-7-7-7-7-7-7-7-7--------------------------------| 
E|5-5-5-5-5-5-5-5-5-5-5-5-5-5-5-5-5-5-5-5-5-5--------------------------------| 

x2 

verse 2 

e|----------------------------------------------------------------------------------| 
B|----------------------------------------------------------------------------------| 
G|6-6-6-6-6-6-6-6-7-7-7-6-6-6-6-6-6-6-6-7-7-7-6-6-6-6-6-6-6-6-7-7-7-6-6-6-6-6-6-6-6-| 
D|6-6-6-6-6-6-6-6-7-7-7-6-6-6-6-6-6-6-6-7-7-7-6-6-6-6-6-6-6-6-7-7-7-6-6-6-6-6-6-6-6-| 
A|4-4-4-4-4-4-4-4-5-5-5-4-4-4-4-4-4-4-4-5-5-5-4-4-4-4-4-4-4-4-5-5-5-4-4-4-4-4-4-4-4-| 
E|----------------------------------------------------------------------------------| 
x1 

e|---------------------------------------------------------------------------| 
B|---------------------------------------------------------------------------| 
G|------------------------7-7-7-6-6-6-6-6-6-6-6-7-7-7------------------------| 
D|0-0-0-0-0-0-0-0-0-0-0-0-7-7-7-6-6-6-6-6-6-6-6-7-7-7------------------------| 
A|0-0-0-0-0-0-0-0-0-0-0-0-5-5-5-4-4-4-4-4-4-4-4-5-5-5------------------------| 
E|0-0-0-0-0-0-0-0-0-0-0-0----------------------------------------------------| 
  * * * * * * * * * * * *  
2x 

Chorus 

e|---------------------------------------------------------------------------| 
B|---------------------------------------------------------------------------| 
G|---------------------------------------------------------------------------| 
D|7-7-7-7-7-7-7-7-7-7-7-7-7-7-7-7-7-7-7-7-7-7--------------------------------| 
A|7-7-7-7-7-7-7-7-7-7-7-7-7-7-7-7-7-7-7-7-7-7--------------------------------| 
E|5-5-5-5-5-5-5-5-5-5-5-5-5-5-5-5-5-5-5-5-5-5--------------------------------| 
x2 


Bridge 

e|----------------------------------------------------------------------------------| 
B|----------------------------------------------------------------------------------| 
G|6-6-6-6-6-6-6-6-7-7-7-6-6-6-6-6-6-6-6-7-7-7-6-6-6-6-6-6-6-6-7-7-7-6-6-6-6-6-6-6-6-| 
D|6-6-6-6-6-6-6-6-7-7-7-6-6-6-6-6-6-6-6-7-7-7-6-6-6-6-6-6-6-6-7-7-7-6-6-6-6-6-6-6-6-| 
A|4-4-4-4-4-4-4-4-5-5-5-4-4-4-4-4-4-4-4-5-5-5-4-4-4-4-4-4-4-4-5-5-5-4-4-4-4-4-4-4-4-| 
E|----------------------------------------------------------------------------------| 
x1 

e|---------------------------------------------------------------------------| 
B|---------------------------------------------------------------------------| 
G|---------------------------------------------------------------------------| 
D|--------------5-5-5-5------------------------------------------------------| 
A|------4-4-4-4-3-3-3-3-6-6-6-6-6-6-6-6--------------------------------------| 
E|/\----2-2-2-2---------4-4-4-4-4-4-4-4--------------------------------------| 
        PM PM PM PM PM PM PM PM PM PM PM 
x17 (each time speeds up slightly) 

Chorus 

e|---------------------------------------------------------------------------| 
B|---------------------------------------------------------------------------| 
G|---------------------------------------------------------------------------| 
D|7-7-7-7-7-7-7-7-7-7-7-7-7-7-7-7-7-7-7-7-7-7--------------------------------| 
A|7-7-7-7-7-7-7-7-7-7-7-7-7-7-7-7-7-7-7-7-7-7--------------------------------| 
E|5-5-5-5-5-5-5-5-5-5-5-5-5-5-5-5-5-5-5-5-5-5--------------------------------| 
x2 


************************************ 


| *   Mute 
| /   Slide up 
| \   Slide down 
| PM  Palm mute 


************************************
        
share this page

See Also: