E-Chords
Coti

Esta Mañana(Tabs)

Coti

Key: Em
 Este punteo de verdad suena IDÉNTICO al del disco. 
 Por otro lado tenéis los acordes buenos de la canción 
 también aquí en laCuerda. 
 Para tocar esto bien escuchad atentamente la canción. 


  Em   D   C  (tocados de una pasada) 

E-||-------5-----3---------- 
B-||---3s5---5s3-------3s1--- 
G-||------------------------ 
D-||---------------2s4------ 
A-||------------------------ 
E-||------------------------ 

  Em   D   C  (tocados de una pasada) 

E-||-------------------------------|-------------- 
B-||---------------3-0-------------|-----3-----1-- 
G-||-------0-2-4-------2---4-0----·|-------------- 
D-||---2-4---------------------2--·|-4s5---5s4---- 
A-||-------------------------------|-------------- 
E-||-------------------------------|-------------- 
             (dos veces) 

Desde que... 



NOTA: 
      --> 5s3 - Puntear el quinto traste de la cuerda 
                en cuestión, y DESLIZAR (slide) hasta 
                el tercero... 


Para cualquier petición, duda, comentario,...mi mail: 
[email protected]  GraciaS.

roll up this ad to continue

share this page

See Also: