E-Chords
Chrono Cross

Scars Of Time(Tabs)

Chrono Cross

roll up this ad to continue

-1-8-8-6-4-3-4-6--4-3-3-4-1--1-8-8-8-10-11-13-11-10 
--------------------------------------------------- 
--------------------------------------------------- 
--------------------------------------------------- 
--------------------------------------------------- 
--------------------------------------------------- 


-8-6-4-6-8-6--6-8-4-4--4-6-8-4-6--4-3-1----8-10-8-- 
----------------------------------------4---------- 
--------------------------------------------------- 
--------------------------------------------------- 
--------------------------------------------------- 
--------------------------------------------------- 


-6-4-3-1---1-1---1--------------------------------- 
---------------4----------------------------------- 
--------------------------------------------------- 
--------------------------------------------------- 
--------------------------------------------------- 
--------------------------------------------------- 


To be continued 
share this page

See Also: