E-Chords
Christian Death

Romeos Distress(Tabs)

Christian Death

roll up this ad to continue

Christian Death-Romeo?s Distress 
(Only Theatre of Pain) 

This is probably 90% correct... One of the best songs by one of the best bands. 

-Intro- 
E |----------------------------------------- 
B |----9----------------------------------- 
G |---------------------------------------- 
D |---------------------------------------- 
A |---------------------------------------- 
E |---------------------------------------- 

E |----------------------------------------- 
B |-9-9-9-9-9-9-9-7-9---------------- 
G |---------------------------------------- 
D |----------------------------------------	(x2) 
A |---------------------------------------- 
E |---------------------------------------- 

E |----------------------------------------- 
B |-9-9-9-7-9--------------------------- 
G |---------------------------------------- 
D |----------------------------------------	(x6) 
A |---------------------------------------- 
E |---------------------------------------- 
-Verse 1- 

?Burning crosses on...? 
E |----------------------------------------- 
B |---------------------------------------- 
G |--9-9-9-9-9-9-9-8----------------- 
D |--9-9-9-9-9-9-9-8----------------- 
A |--7-7-7-7-7-7-7-6----------------- 
E |---------------------------------------- 
?Burning dollars... 
E |----------------------------------------- 
B |---------------------------------------- 
G |-6-6-6-6-6-6-6-4------------------ 
D |-6-6-6-6-6-6-6-4------------------ 
A |-4-4-4-4-4-4-4-2------------------ 
E |---------------------------------------- 
?Without a home...? 
E |---------------------------------------- 
B |---------------------------------------- 
G |-2-2-2-2-2-2-2-2------------------ 
D |-2-2-2-2-2-2-2-2------------------ 
A |-0-0-0-0-0-0-0-0------------------ 
E |---------------------------------------- 
?Dance in your white...? 
E |---------------------------------------- 
B |---------------------------------------- 
G |-6-6-6-6-9-9-9-9------------------ 
D |-6-6-6-6-9-9-9-9------------------ 
A |-4-4-4-4-7-7-7-7------------------ 
E |---------------------------------------- 
(repeat verse) 

-End of Verse 1 (second time)- 
?Conversatiuons about...? 
E |---------------------------------------- 
B |---------------------------------------- 
G |-6-6-6-6-9-9-9-9------------------ 
D |-6-6-6-6-9-9-9-9------------------	(x3) 
A |-4-4-4-4-7-7-7-7------------------ 
E |---------------------------------------- 

-Pre Chorus- 
?What?s that moving in...? 
E |----------------------------------------- 
B |-11-11-11-11-12--12--12--12--- 
G |-9---9---9--9--10--10--10--10--- 
D |----------------------------------------	(x4) 
A |---------------------------------------- 
E |---------------------------------------- 

-Chorus (same as verse 1)- 
?Kiss on my hand...? 
E |----------------------------------------- 
B |---------------------------------------- 
G |--9-9-9-9-9-9-9-8----------------- 
D |--9-9-9-9-9-9-9-8----------------- 
A |--7-7-7-7-7-7-7-6----------------- 
E |---------------------------------------- 
?After Dark...? 
E |----------------------------------------- 
B |---------------------------------------- 
G |-6-6-6-6-6-6-6-4------------------ 
D |-6-6-6-6-6-6-6-4------------------ 
A |-4-4-4-4-4-4-4-2------------------ 
E |---------------------------------------- 
?Kiss on my hand...? 
E |---------------------------------------- 
B |---------------------------------------- 
G |-2-2-2-2-2-2-2-2------------------ 
D |-2-2-2-2-2-2-2-2------------------ 
A |-0-0-0-0-0-0-0-0------------------ 
E |---------------------------------------- 
?Kiss on my hnd...? 
E |---------------------------------------- 
B |---------------------------------------- 
G |-6-6-6-6-9-9-9-9------------------ 
D |-6-6-6-6-9-9-9-9------------------ 
A |-4-4-4-4-7-7-7-7------------------ 
E |---------------------------------------- 


-End of Chorus- 
E |---------------------------------------- 
B |---------------------------------------- 
G |-6-6-6-6-9-9-9-9------------------ 
D |-6-6-6-6-9-9-9-9------------------	(x3) 
A |-4-4-4-4-7-7-7-7------------------ 
E |---------------------------------------- 

-Verse 2 (same as first and Chorus)- 
?Romance in sequence...? 
E |----------------------------------------- 
B |---------------------------------------- 
G |--9-9-9-9-9-9-9-8----------------- 
D |--9-9-9-9-9-9-9-8----------------- 
A |--7-7-7-7-7-7-7-6----------------- 
E |---------------------------------------- 
?Burning hearts through...? 
E |----------------------------------------- 
B |---------------------------------------- 
G |-6-6-6-6-6-6-6-4------------------ 
D |-6-6-6-6-6-6-6-4------------------ 
A |-4-4-4-4-4-4-4-2------------------ 
E |---------------------------------------- 
?Dance in your white...? 
E |---------------------------------------- 
B |---------------------------------------- 
G |-2-2-2-2-2-2-2-2------------------ 
D |-2-2-2-2-2-2-2-2------------------ 
A |-0-0-0-0-0-0-0-0------------------ 
E |---------------------------------------- 
?Dance in your passion...? 
E |---------------------------------------- 
B |---------------------------------------- 
G |-6-6-6-6-9-9-9-9------------------ 
D |-6-6-6-6-9-9-9-9------------------ 
A |-4-4-4-4-7-7-7-7------------------ 
E |---------------------------------------- 
(repeat verse) 

-End of Verse 2 (second time)- 
E |---------------------------------------- 
B |---------------------------------------- 
G |-6-6-6-6-9-9-9-9------------------ 
D |-6-6-6-6-9-9-9-9------------------	(x3) 
A |-4-4-4-4-7-7-7-7------------------ 
E |---------------------------------------- 

-Pre Chorus- 
?What?s that moving...? 
E |----------------------------------------- 
B |-11-11-11-11-12--12--12--12--- 
G |-9---9---9--9--10--10--10--10--- 
D |----------------------------------------	(x4) 
A |---------------------------------------- 
E |---------------------------------------- 

-Chorus (same as verse 1)- 
?Kiss on my hand...? 
E |----------------------------------------- 
B |---------------------------------------- 
G |--9-9-9-9-9-9-9-8----------------- 
D |--9-9-9-9-9-9-9-8----------------- 
A |--7-7-7-7-7-7-7-6----------------- 
E |---------------------------------------- 
?After dark...? 
E |----------------------------------------- 
B |---------------------------------------- 
G |-6-6-6-6-6-6-6-4------------------ 
D |-6-6-6-6-6-6-6-4------------------ 
A |-4-4-4-4-4-4-4-2------------------ 
E |---------------------------------------- 
?Kiss on my hand...? 
E |---------------------------------------- 
B |---------------------------------------- 
G |-2-2-2-2-2-2-2-2------------------ 
D |-2-2-2-2-2-2-2-2------------------ 
A |-0-0-0-0-0-0-0-0------------------ 
E |---------------------------------------- 
?Kiss on my hand...? 
E |---------------------------------------- 
B |---------------------------------------- 
G |-6-6-6-6-9-9-9-9------------------ 
D |-6-6-6-6-9-9-9-9------------------ 
A |-4-4-4-4-7-7-7-7------------------ 
E |---------------------------------------- 
-End of Chorus- 
?Kiss on my hand...? 
E |---------------------------------------- 
B |---------------------------------------- 
G |-6-6-6-6-9-9-9-9------------------ 
D |-6-6-6-6-9-9-9-9------------------	(x3) 
A |-4-4-4-4-7-7-7-7------------------ 
E |---------------------------------------- 

-Outro- 
?Pull down the sheets...? 
E |---------------------------------------- 
B |---------------------------------------- 
G |--9-9-9-9-8-8-6-------------------- 
D |--9-9-9-9-8-8-6--------------------	(x11) 
A |--7-7-7-7-6-6-4-------------------- 
E |---------------------------------------- 

-Outro Guitar 2- 
?Pull down the sheets...? 
E |---------------------------------------- 
B |---------------------------------------- 
G |---------------------------------------- 
D |----------------------------------------	(x11) 
A |--12-12-12-12-11-11-9--------- 
E |---------------------------------------- 

-End- 
E |---------------------------------------- 
B |---------------------------------------- 
G |--9------------------------------------ 
D |--9------------------------------------ 
A |--7------------------------------------ 
E |---------------------------------------- 
share this page

See Also: