E-Chords
Children Of Bodom

Ugly(Tabs)

Children Of Bodom

roll up this ad to continue

D|----------------| 
A|----------------| 
F|-555------------| 
C|-555-333-555----| 
G|-333-333-555----| 
C|-----333-555----| 
     
      Intro riff 
D|----------------------------------------------| 
A|----------------------------------------------| 
F|----------------------------------------5-----| 
C|-----------------------------------------7-5-9| 
G|----------------------7p5-8p5-------------5---| 
C|---5h7-7777-10p7-7777---------5h7-7777--------| 
(p.m)    |---|     |---|            |---|                

D|---------------------------------------| 
A|---------------------------------------| 
F|---------------------------------------| 
C|----------------------7-9-10-12--------| 
G|-----------------5-3--5-7--8-10--------| 
C|---5h7-7777-875------------------------| 
(p.m)    |---|                 

D|----------------------------------------------| 
A|----------------------------------------------| 
F|----------------------------------------5-----| 
C|-----------------------------------------7-5-9| 
G|----------------------7p5-8p5-------------5---| 
C|---5h7-7777-10p7-7777---------5h7-7777--------| 
(p.m)    |---|     |---|            |---|                
                  
D|---------------------------------------| 
A|---------------------------------------| 
F|---------------------------------------| 
C|----------------------7-9-10-12--------| 
G|-----------------5-3--5-7--8-10--------| 
C|---5h7-7777-875------------------------| 
(p.m)    |---|                 

D|---------------------------------------------------------------------| 
A|---------------------------------------------------------------------| 
F|---------------------------------------9-9---------------------------| 
C|------------------------------------------10-10-12-12-9-9-10-10-12-12| 
G|----------------------7p5-8p5----------------------------------------| 
C|---5h7-7777-10p7-7777---------5h7-77---------------------------------| 
(p.m)    |---|     |---|            |-|  |-----------------------------|              

D|---------------------------------| 
A|---------------------------------| 
F|---------------------------------| 
C|----------------------7-8-5-1----| 
G|-----------------5-3--5-8-5-1----| 
C|---5h7-7777-875---------8-5-1----| 
(p.m)    |---|                 


D|----------------------------------------------| 
A|----------------------------------------------| 
F|----------------------------------------5-----| 
C|-----------------------------------------7-5-9| 
G|----------------------7p5-8p5-------------5---| 
C|---5h7-7777-10p7-7777---------5h7-7777--------| 
(p.m)    |---|     |---|            |---|                
                  
D|---------------------------------------| 
A|---------------------------------------| 
F|---------------------------------------| 
C|----------------------7-9-10-12--------| 
G|-----------------5-3--5-7--8-10--------| 
C|---5h7-7777-875------------------------| 
(p.m)    |---|                 

D|---------------------------------------------------------------------| 
A|---------------------------------------------------------------------| 
F|---------------------------------------9-9---------------------------| 
C|------------------------------------------10-10-12-12-9-9-10-10-12-12| 
G|----------------------7p5-8p5----------------------------------------| 
C|---5h7-7777-10p7-7777---------5h7-77---------------------------------| 
(p.m)    |---|     |---|            |-|  |-----------------------------|              

D|---------------------------------| 
A|---------------------------------| 
F|---------------------------------| 
C|----------------------7-8-5-1----| 
G|-----------------5-3--5-8-5-1----| 
C|---5h7-7777-875---------8-5-1----| 
(p.m)    |---|                 

        Main riff 
D|-----------------------------------| 
A|-----------------------------------| 
F|-----------------------------------| 
C|-------7----5---3-------6-------3-5| 
G|-00-565--00--0-1--00-575---0-0-1-3-| 
C|-00------00-------00-------0-------| 
   |-|     |-|      |-|     |-|   

D|-----------------------------------| 
A|-----------------------------------| 
F|-----------------------------------| 
C|-------7----5---3-------6-------3-5| 
G|-00-565--00--0-1--00-575---0-0-1-3-| 
C|-00------00-------00-------0-------| 
   |-|     |-|      |-|     |-|   


D|------------------------------------------------| 
A|------------------------------------------------| 
F|-----------------------------9-10---------10-9--| 
C|-------7---------------10-12------12--7-8-------| 
G|-00-565--00-7----7--13--------------------------| 
C|-00------00--7-10-------------------------------| 
   |-|     |-|          

D|-----------------------------------| 
A|-----------------------------------| 
F|-----------------------------------| 
C|-------7----5---3-------6-------3-5| 
G|-00-565--00--0-1--00-575---0-0-1-3-| 
C|-00------00-------00-------0-------| 
   |-|     |-|      |-|     |-|   

D|---------------------| 
A|---------------------| 
F|---------------------| 
C|-------7-----------8-| 
G|-00-565--00-7----7-8-| 
C|-00------00--7-10--8-| 
   |-|     |-|          
       
D|-----------------------------------| 
A|-----------------------------------| 
F|-----------------------------------| 
C|-------7----5---3-------6-------3-5| 
G|-00-565--00--0-1--00-575---0-0-1-3-| 
C|-00------00-------00-------0-------| 
   |-|     |-|      |-|     |-|   

D|-----------------------------------------------| 
A|------------------------------------11-10------| 
F|-----------------------------9-10---------10-12| 
C|-------7---------------10-12------12-----------| 
G|-00-565--00-7----7--13-------------------------| 
C|-00------00--7-10------------------------------| 
   |-|     |-|          

D|-----------------------------------| 
A|-----------------------------------| 
F|-----------------------------------| 
C|-------7----5---3-------6-------3-5| 
G|-00-565--00--0-1--00-575---0-0-1-3-| 
C|-00------00-------00-------0-------| 
   |-|     |-|      |-|     |-|   

D|-----------------------------------------------| 
A|------------------------------------11-10------| 
F|-----------------------------9-10---------10-12| 
C|-------7---------------10-12------12-----------| 
G|-00-565--00-7----7--13-------------------------| 
C|-00------00--7-10------------------------------| 
   |-|     |-|          


D|-------------------13-12-------| 
A|----------13-12~---------13-15-| 
F|-14-12-14-------14-------------| 
C|-------------------------------| 
G|-------------------------------| 
C|-------------------------------| 
             
                     Verse    
D|-----------------------------------------------------------| 
A|-----------------------------------------------------------| 
F|9------9------9----10-9--------------------9--------9------| 
C|7-7777-7-7777-7-77--7-7-77--10-----12------7-777777-7-7777-| 
G|-----------------------------8--88-10-1010-----------------| 
C|-----------------------------------------------------------| 
    |---|  |---|  |-|     |-|     |-|   |---|  |-----|  |---|   
             
D|-----------------| 
A|-----------10-9-8| 
F|---9-8-8-7-------| 
C|-10---9---8------| 
G|-----------------| 
C|-----------------| 

D|-----------------------------------------------------------------| 
A|-----------------------------------------------------------------| 
F|-----------------------------------------------------------------| 
C|7------7------7----8-7----3-----5-----7--------7---------7--7----| 
G|5-5555-5-5555-5-55-5-5-55-1-1-1-3-3-3-5-555555-5-5555-565-65-876-| 
C|-----------------------------------------------------------------| 
    |---|  |---|  |-|    |-|  |-|   |-|   |-----|  |---| 

D|-----------------------------------------------------------| 
A|-----------------------------------------------------------| 
F|9------9------9----10-9--------------------9--------9------| 
C|7-7777-7-7777-7-77--7-7-77--10-----12------7-777777-7-7777-| 
G|-----------------------------8--88-10-1010-----------------| 
C|-----------------------------------------------------------| 
    |---|  |---|  |-|     |-|     |-|   |---|  |-----|  |---|   
             
D|-----------------| 
A|-----------10-9-8| 
F|---9-8-8-7-------| 
C|-10---9---8------| 
G|-----------------| 
C|-----------------| 


D|-----------------------------------------------------------------| 
A|-----------------------------------------------------------------| 
F|-----------------------------------------------------------------| 
C|7------7------7----8-7----3-----5-----7--------7----------555x222| 
G|5-5555-5-5555-5-55-5-5-55-1-1-1-3-3-3-5-555555-5-5555-565-333x000| 
C|-----------------------------------------------------------------| 
    |---|  |---|  |-|    |-|  |-|   |-|   |-----|  |---| 

                      Chorus                                                                       

D|----------------------------------------------------------------| 
A|----------------------------------------------------------------| 
F|10-10-10-10-10-10-10-10--9-x-5-5-5-5-5-5-5-5--8-8-8-8-8-8-8-8---| 
C|----------------------------------------------------------------| 
G|-8--8--8--8--8--8--8--8--7-x-3-3-3-3-3-3-3-3--6-6-6-6-6-6-6-6---| 
D|----------------------------------------------------------------| 
     
D|------------------------------| 
A|------------------------------| 
F|-12-12-12-12--11-11--10-10--8-| 
C|------------------------------| 
G|-10-10-10-10---9--9---8--8--6-| 
D|------------------------------| 
  
D|---------------------------------------------| 
A|---------------------------------------------| 
F|10-10-10-10-10-10-10-10--9-x-5-5-5-5-5-5-5-5-| 
C|---------------------------------------------| 
G|-8--8--8--8--8--8--8--8--7-x-3-3-3-3-3-3-3-3-| 
D|---------------------------------------------| 
     
D|------------------------------------------------------| 
A|------------------------------------------------------| 
F|-7-7-7-7--9-9--10-10--12-12--15-15--14-14--12-12--10--| 
C|------------------------------------------------------| 
G|-5-5-5-5--7-7---8--8--10-10--13-13--12-12--10-10---8--| 
D|------------------------------------------------------|            

D|----------------------------------------------------------------| 
A|----------------------------------------------------------------| 
F|10-10-10-10-10-10-10-10--9-x-5-5-5-5-5-5-5-5--8-8-8-8-8-8-8-8---| 
C|----------------------------------------------------------------| 
G|-8--8--8--8--8--8--8--8--7-x-3-3-3-3-3-3-3-3--6-6-6-6-6-6-6-6---| 
D|----------------------------------------------------------------| 
     
D|------------------------------| 
A|------------------------------| 
F|-12-12-12-12--11-11--10-10--8-| 
C|------------------------------| 
G|-10-10-10-10---9--9---8--8--6-| 
D|------------------------------| 
  
D|---------------------------------------------| 
A|---------------------------------------------| 
F|10-10-10-10-10-10-10-10--9-x-5-5-5-5-5-5-5-5-| 
C|---------------------------------------------| 
G|-8--8--8--8--8--8--8--8--7-x-3-3-3-3-3-3-3-3-| 
D|---------------------------------------------| 
     
D|------------------------------------------------------| 
A|------------------------------------------------------| 
F|-7-7-7-7--9-9--10-10--12-12--15-15--14-14--12-12--10--| 
C|------------------------------------------------------| 
G|-5-5-5-5--7-7---8--8--10-10--13-13--12-12--10-10---8--| 
D|------------------------------------------------------|            

                     Verse    
D|-----------------------------------------------------------| 
A|-----------------------------------------------------------| 
F|9------9------9----10-9--------------------9--------9------| 
C|7-7777-7-7777-7-77--7-7-77--10-----12------7-777777-7-7777-| 
G|-----------------------------8--88-10-1010-----------------| 
C|-----------------------------------------------------------| 
    |---|  |---|  |-|     |-|     |-|   |---|  |-----| |---|   
             
D|-----------------| 
A|-----------10-9-8| 
F|---9-8-8-7-------| 
C|-10---9---8------| 
G|-----------------| 
C|-----------------| 

D|-----------------------------------------------------------------| 
A|-----------------------------------------------------------------| 
F|-----------------------------------------------------------------| 
C|7------7------7----8-7----3-----5-----7--------7---------7--7----| 
G|5-5555-5-5555-5-55-5-5-55-1-1-1-3-3-3-5-555555-5-5555-565-65-876-| 
C|-----------------------------------------------------------------| 
    |---|  |---|  |-|    |-|  |-|   |-|   |-----|  |---| 

D|-----------------------------------------------------------| 
A|-----------------------------------------------------------| 
F|9------9------9----10-9--------------------9--------9------| 
C|7-7777-7-7777-7-77--7-7-77--10-----12------7-777777-7-7777-| 
G|-----------------------------8--88-10-1010-----------------| 
C|-----------------------------------------------------------| 
    |---|  |---|  |-|     |-|     |-|   |---|  |-----|  |---|   
             
D|-----------------| 
A|-----------10-9-8| 
F|---9-8-8-7-------| 
C|-10---9---8------| 
G|-----------------| 
C|-----------------| 


D|-----------------------------------------------------------------| 
A|-----------------------------------------------------------------| 
F|-----------------------------------------------------------------| 
C|7------7------7----8-7----3-----5-----7--------7---------7--7----| 
G|5-5555-5-5555-5-55-5-5-55-1-1-1-3-3-3-5-555555-5-5555-565-65-876-| 
C|-----------------------------------------------------------------| 
    |---|  |---|  |-|    |-|  |-|   |-|   |-----|  |---| 

        Main riff 
D|-----------------------------------| 
A|-----------------------------------| 
F|-----------------------------------| 
C|-------7----5---3-------6-------3-5| 
G|-00-565--00--0-1--00-575---0-0-1-3-| 
C|-00------00-------00-------0-------| 
   |-|     |-|      |-|     |-|   

D|-----------------------------------| 
A|-----------------------------------| 
F|-----------------------------------| 
C|-------7----5---3-------6-------3-5| 
G|-00-565--00--0-1--00-575---0-0-1-3-| 
C|-00------00-------00-------0-------| 
   |-|     |-|      |-|     |-|    

D|-----------------------------------------------| 
A|------------------------------------11-10------| 
F|-----------------------------9-10---------10-12| 
C|-------7---------------10-12------12-----------| 
G|-00-565--00-7----7--13-------------------------| 
C|-00------00--7-10------------------------------| 
   |-|     |-|          

D|-----------------------------------| 
A|-----------------------------------| 
F|-----------------------------------| 
C|-------7----5---3-------6-------3-5| 
G|-00-565--00--0-1--00-575---0-0-1-3-| 
C|-00------00-------00-------0-------| 
   |-|     |-|      |-|     |-|   

D|-----------------------------------------------| 
A|------------------------------------11-10------| 
F|-----------------------------9-10---------10-12| 
C|-------7---------------10-12------12-----------| 
G|-00-565--00-7----7--13-------------------------| 
C|-00------00--7-10------------------------------| 


D|-------------------13-12-------| 
A|----------13-12~---------13-15-| 
F|-14-12-14-------14-------------| 
C|-------------------------------| 
G|-------------------------------| 
C|-------------------------------| 

D|----------------| 
A|----------------| 
F|-555------------| 
C|-555-333-555----| 
G|-333-333-555----| 
C|-----333-555----| 

             Intro riff 
D|----------------------------------------------| 
A|----------------------------------------------| 
F|----------------------------------------5-----| 
C|-----------------------------------------7-5-9| 
G|----------------------7p5-8p5-------------5---| 
C|---5h7-7777-10p7-7777---------5h7-7777--------| 
(p.m)    |---|     |---|            |---|                
          
                  
D|---------------------------------------| 
A|---------------------------------------| 
F|---------------------------------------| 
C|----------------------7-9-10-12--------| 
G|-----------------5-3--5-7--8-10--------| 
C|---5h7-7777-875------------------------| 
(p.m)    |---|                 

D|---------------------------------------------------------------------| 
A|---------------------------------------------------------------------| 
F|---------------------------------------9-9---------------------------| 
C|------------------------------------------10-10-12-12-9-9-10-10-12-12| 
G|----------------------7p5-8p5----------------------------------------| 
C|---5h7-7777-10p7-7777---------5h7-77---------------------------------| 
(p.m)    |---|     |---|            |-|  |-----------------------------|              

D|---------------------------------| 
A|---------------------------------| 
F|---------------------------------| 
C|----------------------7-8-5-1----| 
G|-----------------5-3--5-8-5-1----| 
C|---5h7-7777-875---------8-5-1----| 
(p.m)    |---|                 
              Keyboard Solo 
D|----------------------------------------------| 
A|----------------------------------------------| 
F|----------------------------------------5-----| 
C|-----------------------------------------7-5-9| 
G|----------------------7p5-8p5-------------5---| 
C|---5h7-7777-10p7-7777---------5h7-7777--------| 
(p.m)    |---|     |---|            |---|                
                  
D|---------------------------------------| 
A|---------------------------------------| 
F|---------------------------------------| 
C|----------------------7-9-10-12--------| 
G|-----------------5-3--5-7--8-10--------| 
C|---5h7-7777-875------------------------| 
(p.m)    |---|                 

D|---------------------------------------------------------------------| 
A|---------------------------------------------------------------------| 
F|---------------------------------------9-9---------------------------| 
C|------------------------------------------10-10-12-12-9-9-10-10-12-12| 
G|----------------------7p5-8p5----------------------------------------| 
C|---5h7-7777-10p7-7777---------5h7-77---------------------------------| 
(p.m)    |---|     |---|            |-|  |-----------------------------|              

D|---------------------------------| 
A|---------------------------------| 
F|---------------------------------| 
C|----------------------7-8-5-1----| 
G|-----------------5-3--5-8-5-1----| 
C|---5h7-7777-875---------8-5-1----| 
(p.m)    |---|                 

                Chorus                                                                       

D|----------------------------------------------------------------| 
A|----------------------------------------------------------------| 
F|10-10-10-10-10-10-10-10--9-x-5-5-5-5-5-5-5-5--8-8-8-8-8-8-8-8---| 
C|----------------------------------------------------------------| 
G|-8--8--8--8--8--8--8--8--7-x-3-3-3-3-3-3-3-3--6-6-6-6-6-6-6-6---| 
D|----------------------------------------------------------------| 
     
D|------------------------------| 
A|------------------------------| 
F|-12-12-12-12--11-11--10-10--8-| 
C|------------------------------| 
G|-10-10-10-10---9--9---8--8--6-| 
D|------------------------------| 
  
D|---------------------------------------------| 
A|---------------------------------------------| 
F|10-10-10-10-10-10-10-10--9-x-5-5-5-5-5-5-5-5-| 
C|---------------------------------------------| 
G|-8--8--8--8--8--8--8--8--7-x-3-3-3-3-3-3-3-3-| 
D|---------------------------------------------| 
     
D|------------------------------------------------------| 
A|------------------------------------------------------| 
F|-7-7-7-7--9-9--10-10--12-12--15-15--14-14--12-12--10--| 
C|------------------------------------------------------| 
G|-5-5-5-5--7-7---8--8--10-10--13-13--12-12--10-10---8--| 
D|------------------------------------------------------|            

D|----------------------------------------------------------------| 
A|----------------------------------------------------------------| 
F|10-10-10-10-10-10-10-10--9-x-5-5-5-5-5-5-5-5--8-8-8-8-8-8-8-8---| 
C|----------------------------------------------------------------| 
G|-8--8--8--8--8--8--8--8--7-x-3-3-3-3-3-3-3-3--6-6-6-6-6-6-6-6---| 
D|----------------------------------------------------------------| 
     
D|------------------------------| 
A|------------------------------| 
F|-12-12-12-12--11-11--10-10--8-| 
C|------------------------------| 
G|-10-10-10-10---9--9---8--8--6-| 
D|------------------------------| 
  
D|---------------------------------------------| 
A|---------------------------------------------| 
F|10-10-10-10-10-10-10-10--9-x-5-5-5-5-5-5-5-5-| 
C|---------------------------------------------| 
G|-8--8--8--8--8--8--8--8--7-x-3-3-3-3-3-3-3-3-| 
D|---------------------------------------------| 
     
D|------------------------------------------------------| 
A|------------------------------------------------------| 
F|-7-7-7-7--9-9--10-10--12-12--15-15--14-14--12-12--10--| 
C|------------------------------------------------------| 
G|-5-5-5-5--7-7---8--8--10-10--13-13--12-12--10-10---8--| 
D|------------------------------------------------------|            

            Solo 
D|-----------------------------------------------6s151312------------| 
A|-------------------------13-15b-17b-17br-17-15-------------151311--| 
F|--12b?12br--10-12~~--12-14-------------------15~---------------1412| 
C|-------------------------------------------------------------------| 
G|-------------------------------------------------------------------| 
C|-------------------------------------------------------------------| 

D|--------------------------------------------------------------------------| 
A|--------------------------------------------------------10----------------| 
F|10-9--9-10-9-10-9----9-10-9-10-9------12-9-----12-9-------12-10-9-10-9----| 
C-----12------------12------------12-10-----12-10----12-10--------------1210| 
G|--------------------------------------------------------------------------| 
C|--------------------------------------------------------------------------| 

D|---------------------------------------| 
A|-------------------------13------------| 
F|---------------12s14-12----12s14s12----| 
C|8~8-10~-12~-15~--------15----------15~-| 
G|---------------------------------------| 
C|---------------------------------------| 

D|--------------------------------------------------------13s15-201718------| 
A|---------------------------------------15--17--18--15-17------------18s20-| 
F|12b14-14-14-12b14-14-14-14-12-12-12-12---14--14--14-----------------------| 
C|--------------------------------------------------------------------------| 
G|--------------------------------------------------------------------------| 
C|--------------------------------------------------------------------------| 

D|22-18p15-----------15-----------------------------------------------------| 
A|--------16-------16-------------------------------------------------------| 
F|----------15---15-----12b12-10-12b~-10-9-10-9--9--------------------------| 
C|-------------17------------------------------12-12-1010b12-12-12-12-12-12-| 
G|--------------------------------------------------------------------------| 
C|--------------------------------------------------------------------------| 


D|--------------------------| 
A|13?13b15-15-15-15-15-15br-| 
F|--------------------------| 
C|--------------------------| 
G|--------------------------| 
C|--------------------------| 


               Outro 
D|-----------------------------------------------------------| 
A|-----------------------------------------------------------| 
F|9------9------9----10-9--------------------9--------9------| 
C|7-7777-7-7777-7-77--7-7-77--10-----12------7-777777-7-7777-| 
G|-----------------------------8--88-10-1010-----------------| 
C|-----------------------------------------------------------| 
    |---|  |---|  |-|     |-|     |-|   |---|  |-----|  |---|   
             
D|-----------------| 
A|-----------10-9-8| 
F|---9-8-8-7-------| 
C|-10---9---8------| 
G|-----------------| 
C|-----------------| 

D|-----------------------------------------------------------------| 
A|-----------------------------------------------------------------| 
F|-----------------------------------------------------------------| 
C|7------7------7----8-7----3-----5-----7--------7---------7--7----| 
G|5-5555-5-5555-5-55-5-5-55-1-1-1-3-3-3-5-555555-5-5555-565-65-876-| 
C|-----------------------------------------------------------------| 
    |---|  |---|  |-|    |-|  |-|   |-|   |-----|  |---| 

D|-----------------------------------------------------------| 
A|-----------------------------------------------------------| 
F|9------9------9----10-9--------------------9--------9------| 
C|7-7777-7-7777-7-77--7-7-77--10-----12------7-777777-7-7777-| 
G|-----------------------------8--88-10-1010-----------------| 
C|-----------------------------------------------------------| 
    |---|  |---|  |-|     |-|     |-|   |---|  |-----|  |---|   
             
D|-----------------| 
A|-----------10-9-8| 
F|---9-8-8-7-------| 
C|-10---9---8------| 
G|-----------------| 
C|-----------------| 


D|-----------------------------------------------------------------| 
A|-----------------------------------------------------------------| 
F|-----------------------------------------------------------------| 
C|7------7------7----8-7----3-----5-----7--------7----------555x222| 
G|5-5555-5-5555-5-55-5-5-55-1-1-1-3-3-3-5-555555-5-5555-565-333x000| 
C|-----------------------------------------------------------------| 
    |---|  |---|  |-|    |-|  |-|   |-|   |-----|  |---| 
              

Hope It helped. 
share this page

See Also: