E-Chords
Children Of Bodom

Transference(Tabs)

Children Of Bodom

roll up this ad to continue

intro: 

d|----------------------------------| 
a|--16--13--15--12--15--16--11--13--| 
f|----------------------------------| 
c|--13--10--12--9---12--13--8---10--| 
g|----------------------------------| 
c|----------------------------------| 

main riff: 

d|----------------------------------------------------------------------------| 
a|--13--10--12--9--12--13--8--------------------------------------------------| 
f|------------------------------------------------7--7--9--9------------------| 
c|--10--7---9---6--9---10--5--7--7--10--10--7--7--------------10--10--10--10--| 
g|----------------------------------------------------------------------------| 
c|----------------------------------------------------------------------------| 

verse: 

d|---------------------------------------------------------------------------------| 
a|---------------------------------------------------------------------------------| 
f|---------------------------------------------------------------------------------| 
c|--9--------------------------------------------------10--------7--------------9--| 
g|--7--------------------------------------------------8---------5--------------7--| 
c|-----0--0--0--0--0--0--0--0--0--0--0--0--0--0--0--0------0--0-----0--0--0--0-----| 



d|-------------------------------------------------------------------------| 
a|-------------------------------------------------------------------------| 
f|-------------------------------------------------------------------------| 
c|--------------------------------------------------7-----12-----10-----9--| 
g|--------------------------------------------------5-----10-----8------7--| 
c|--0--0--0--0--0--0--0--0--0--0--0--0--0--0--0--0-----0------0------0-----| 

chorus: 

d|------------------------------------------------------------------| 
a|------------------------------------------------------------------| 
f|------------------------------------------------------------------| 
c|--16--16--18--18--19--19--18--18--18--18--16--16----------16--16--| 
g|--------------------------------------------------19--19----------| 
c|------------------------------------------------------------------| 



d|------------------------------------------------------| 
a|------------------------------------------------------| 
f|--16--18--19--18--16----------------------------------| 
c|----------------------19--19--18--18--16--16----------| 
g|----------------------------------------------19--19--| 
c|------------------------------------------------------| 



d|------------------------------------------------------------------| 
a|------------------------------------------------------------------| 
f|------------------------------------------------------------------| 
c|--16--16--18--18--19--19--18--18--18--18--16--16----------16--16--| 
g|--------------------------------------------------19--19----------| 
c|------------------------------------------------------------------| 



d|------------------------------| 
a|--------------------------19--| 
f|--16--18--19--18--16----------| 
c|----------------------19------| 
g|------------------------------| 
c|------------------------------| 
 
share this page

See Also: