E-Chords
Children Of Bodom

Towards Dead End Afinação Padrão(Tabs)

Children Of Bodom

roll up this ad to continue

Intro 

part 1 

 
E|-------13-15-------13--16-18-----------------| 
B|-13/15-------13~--------------16-------------| 
G|----------------------------------------15---| 
D|---------------------------------------------| 
A|---------------------------------------------| 
E|---------------------------------------------| 
 

 
E|-------15-20p15----------15-20p15----------15-20p15----------15-20p15---| 
B|----16----------16----16----------16----16----------16----16---------16-| 
G|-17----------------17----------------17----------------17---------------| 
D|------------------------------------------------------------------------| 
A|------------------------------------------------------------------------| 
E|------------------------------------------------------------------------| 
 

 
E|-------10-15p10----------10-15p10----------10-15p10----------10-15p10---| 
B|----11----------11----11----------11----11----------11----11---------11-| 
G|-12----------------12----------------12----------------12---------------| 
D|------------------------------------------------------------------------| 
A|------------------------------------------------------------------------| 
E|------------------------------------------------------------------------| 
 

part 2 

 
E|----11-13------------11-13----------11-13----------| 
B|-13-------11al----13-------13~---13-------11-------| 
G|------------------------------------------------12-| 
D|---------------------------------------------------| 
A|---------------------------------------------------| 
E|---------------------------------------------------| 
 

 
E|-------10-15p10----------10-15p10----------10-13p10h13-16-15-13-----------| 
B|----13----------13----13----------13----12----------------------16-15-13--| 
G|-12----------------12----------------12-----------------------------------| 
D|--------------------------------------------------------------------------| 
A|--------------------------------------------------------------------------| 
E|--------------------------------------------------------------------------| 
 

part 3 

 
E|----13-15-----------------------13----16--18------------| 
B|-15-------13----------------10---------------16---------| 
G|-------------------------10----------------------15-----| 
D|----------------------12--------------------------------| 
A|-------------------12-----------------------------------| 
E|-------------10h13--------------------------------------| 
 

 
E|-------15-20p15----------15-20p15----------15-20p15----------20p15-----| 
B|----16----------16----16----------16----16----------16----16-------16--| 
G|-17----------------17----------------17----------------17--------------| 
D|-----------------------------------------------------------------------| 
A|-----------------------------------------------------------------------| 
E|-----------------------------------------------------------------------| 
 

 
E|-------10-15p10----------10-15p10/15p10h15-18p15h18-22p18h22-22~~------| 
B|----11----------11----11-----------------------------------------------| 
G|-12----------------12--------------------------------------------------| 
D|-----------------------------------------------------------------------| 
A|-----------------------------------------------------------------------| 
E|-----------------------------------------------------------------------| 
 

part 4 

 
E|----11-13-----------11-13-----11-10-----------11-13---------| 
B|-13-------11al---13-------13--------13-11--13-------11------| 
G|--------------------------------------------------------12--| 
D|------------------------------------------------------------| 
A|------------------------------------------------------------| 
E|------------------------------------------------------------| 
 

 
E|-------10-15p10----------10-15p10----------10-15p10----------10-15p10----| 
B|----13----------13----13----------13----13----------13----13----------13-| 
G|-12----------------12----------------12----------------12----------------| 
D|-------------------------------------------------------------------------| 
A|-------------------------------------------------------------------------| 
E|-------------------------------------------------------------------------| 
 

 
E|-16-15-13----------16-15-13----------16-15-13----------------------------| 
B|----------16-15-13----------16-15-13----------16-15-13-12~\----al-----| 
G|-------------------------------------------------------------------------| 
D|-------------------------------------------------------------------------| 
A|-------------------------------------------------------------------------| 
E|-------------------------------------------------------------------------| 
 


Riff 1 2x 

 
E|-------------------------3---------| 
B|--------------4----3----------6----| 
G|----3------------------------------| 
D|-\5---3---5-5---5-5--5-5--5-5------| 
A|-----------------------------------| 
E|-----------------------------------| 
 
PM          . .   . .  . .  . . 



Riff 2 3x 

 
E|-----------------------5-10-8-6--------------------------| 
B|-----5-6-6b8r6-6-5---6----------10-8-6-5---6-5h6p5-------| 
G|-\7----------------7---------------------7---------5-----| 
D|---------------------------------------------------------| 
A|---------------------------------------------------------| 
E|---------------------------------------------------------| 
 

Riff de Passagem 

 
E|--------------------10-9-10-12-10-9-----------------| 
B|----5-6-6b8r6-6-5-------------------11-10-8---------| 
G|-\7---------------7--------------------------10-9---| 
D|----------------------------------------------------| 
A|----------------------------------------------------| 
E|----------------------------------------------------| 
 

Chorus 2x 

 
E|-----------------------------------------------------------------------| 
B|-----------------------------------------------------------------------| 
G|-10-10-9-10--7-7-5-7--6-6-5-6-----------5-5--------------7~-9~-10~-----| 
D|-------------------------------7-5----------8-7-5-----5----------------| 
A|------------------------------------8-7-----------7-8------------------| 
E|-----------------------------------------------------------------------| 
 

Riff De passagem 

 
E|-------------------------------------------------10-10-10-10-10-10-----| 
B|-----------------------------------------------------------------------| 
G|-------------------------------------5-5-5-7-7-7-----------------------| 
D|-------------------5-5-5-7-7-7-8-8-8-----------------------------------| 
A|-5-5-5-7-7-7-8-8-8-----------------------------------------------------| 
E|-----------------------------------------------------------------------| 
 

 
E|-5-5-5---------------| 
B|-------6-6-6---------| 
G|--------------al--| 
D|---------------------| 
A|---------------------| 
E|---------------------| 
 

Riff 3 

 
E|-------------------------------------------------------8----------------| 
B|----------------------------------------------10-10-11----8-8-----------| 
G|-------7-9-10--14--12-12-10h12p10-9-10~--7-9-------------------10-9-10~-| 
D|-8-10-------------------------------------------------------------------| 
A|------------------------------------------------------------------------| 
E|------------------------------------------------------------------------| 
 

 
E|--------------------------------| 
B|--------11-10-8-----------------| 
G|-10-9-7---------10-9-7-5~-------| 
D|--------------------------------| 
A|--------------------------------| 
E|--------------------------------| 
 

 
E|----------------------------------------------8-8---------------| 
B|---------------------------------------------------11-10-8-8----| 
G|-------7-9-10--14--12-12-10h12p10-9-10~--7-9--------------------| 
D|-8-10-----------------------------------------------------------| 
A|----------------------------------------------------------------| 
E|----------------------------------------------------------------| 
 

Passagem 

 
E|----------17-18-20-22-20-18----------20-18-17----------17-15-13----------| 
B|-17-18-20-------------------22-20-18----------20-18-17----------17-15-13-| 
G|-------------------------------------------------------------------------| 
D|-------------------------------------------------------------------------| 
A|-------------------------------------------------------------------------| 
E|-------------------------------------------------------------------------| 
 

 
E|-13-12-10-----------10-8-6---------------------------------------------| 
B|----------13-12-10---------10-8-6----------------------------10H.A.----| 
G|----------------------------------9-7-5--------------------------------| 
D|----------------------------------------8-7-5--------7-8-10------------| 
A|----------------------------------------------7-8-10-------------------| 
E|-----------------------------------------------------------------------| 
 

Repeti a Intro com variação no final 

part 1 

 
E|-------13-15-------13--16-18-----------------| 
B|-13/15-------13~--------------16-------------| 
G|----------------------------------------15---| 
D|---------------------------------------------| 
A|---------------------------------------------| 
E|---------------------------------------------| 
 

 
E|-------15-20p15----------15-20p15----------15-20p15----------15-20p15---| 
B|----16----------16----16----------16----16----------16----16---------16-| 
G|-17----------------17----------------17----------------17---------------| 
D|------------------------------------------------------------------------| 
A|------------------------------------------------------------------------| 
E|------------------------------------------------------------------------| 
 

 
E|-------10-15p10----------10-15p10----------10-15p10----------10-15p10---| 
B|----11----------11----11----------11----11----------11----11---------11-| 
G|-12----------------12----------------12----------------12---------------| 
D|------------------------------------------------------------------------| 
A|------------------------------------------------------------------------| 
E|------------------------------------------------------------------------| 
 

part 2 

 
E|----11-13------------11-13----------11-13----------| 
B|-13-------11al----13-------13~---13-------11-------| 
G|------------------------------------------------12-| 
D|---------------------------------------------------| 
A|---------------------------------------------------| 
E|---------------------------------------------------| 
 

 
E|-------10-15p10----------10-15p10----------10-13p10h13-16-15-13-----------| 
B|----13----------13----13----------13----12----------------------16-15-13--| 
G|-12----------------12----------------12-----------------------------------| 
D|--------------------------------------------------------------------------| 
A|--------------------------------------------------------------------------| 
E|--------------------------------------------------------------------------| 
 

part 3 

 
E|----13-15-----------------------13----16--18------------| 
B|-15-------13----------------10---------------16---------| 
G|-------------------------10----------------------15-----| 
D|----------------------12--------------------------------| 
A|-------------------12-----------------------------------| 
E|-------------10h13--------------------------------------| 
 

 
E|-------15-20p15----------15-20p15----------15-20p15----------20p15-----| 
B|----16----------16----16----------16----16----------16----16-------16--| 
G|-17----------------17----------------17----------------17--------------| 
D|-----------------------------------------------------------------------| 
A|-----------------------------------------------------------------------| 
E|-----------------------------------------------------------------------| 
 

 
E|-------10-15p10----------10-15p10/15p10h15-18p15h18-22p18h22-22~~------| 
B|----11----------11----11-----------------------------------------------| 
G|-12----------------12--------------------------------------------------| 
D|-----------------------------------------------------------------------| 
A|-----------------------------------------------------------------------| 
E|-----------------------------------------------------------------------| 
 

part 4 

 
E|----11-13-----------11-13-----11-10-----------11-13---------| 
B|-13-------11al---13-------13--------13-11--13-------11------| 
G|--------------------------------------------------------12--| 
D|------------------------------------------------------------| 
A|------------------------------------------------------------| 
E|------------------------------------------------------------| 
 

 
E|-------10-15p10----------10-15p10----------10-15p10----------10-15p10----| 
B|----13----------13----13----------13----13----------13----13----------13-| 
G|-12----------------12----------------12----------------12----------------| 
D|-------------------------------------------------------------------------| 
A|-------------------------------------------------------------------------| 
E|-------------------------------------------------------------------------| 
 

 
E|------------------| 
B|------------8-6---| 
G|------8--7--------| 
D|-6--5-------------| 
A|------------------| 
E|------------------| 
 



Riff 1 2x 

 
E|-------------------------3---------| 
B|--------------4----3----------6----| 
G|----3------------------------------| 
D|-\5---3---5-5---5-5--5-5--5-5------| 
A|-----------------------------------| 
E|-----------------------------------| 
 
PM          . .   . .  . .  . . 


Riff 3 2x 

 
E|----------------------------------| 
B|--------------6----5--------------| 
G|----5--------------------7-----5--| 
D|-\7---5---7-7---7-7--7-7---7-7----| 
A|----------------------------------| 
E|----------------------------------| 
 
PM          . .   . .  . .   . . 


Interlúdio 

E|-----------------------------------------------------------------------| 
B|---------------15-----------11-----------13----------15---------10-----| 
G|-10 
D|---------15-----------11-----------14----------15----------10----------| 
A|------17-----------13-----------15----------17----------12-------------| 
E|-----------------------------------------------------------------------| 


 
E|---------------| 
B|----------13---| 
G|----14-12------| 
D|-15------------| 
A|---------------| 
E|---------------| 
 

 
E|-----------------------------------------------------------------------| 
B|---------------15-----------11-----------13----------15---------10-----| 
G|------------14-----------10-----------12----------14----------9--------| 
D|---------15-----------11-----------14----------15----------10----------| 
A|------17-----------13-----------15----------17----------12-------------| 
E|-----------------------------------------------------------------------| 
 


 
E|---------------| 
B|----------13---| 
G|----14-12------| 
D|-15------------| 
A|---------------| 
E|---------------| 
 

 
E|-----------------------------------------------------------------------| 
B|-----------------------------------------------------------------------| 
G|-----------------------------------------------------------------------| 
D|-7-7-7-7-7-7-7-7-7-7-7-7-7-7-7-7-7--3--5--8-8-8-8/9-9-9-9/10-10-10-10/-| 
A|-5-5-5-5-5-5-5-5-5-5-5-5-5-5-5-5-5--1--3-------------------------------| 
E|-5-5-5-5-5-5-5-5-5-5-5-5-5-5-5-5---------------------------------------| 
 
PM . . . . . . . . . . . . . . . . 

 
E|-------------------------------------------------------| 
B|-------------------------------------------------------| 
G|-------------------------------------------------------| 
D|-11-11-11-11/12-12-12-10-12----------------------------| 
A|--------------------------------13-12-10-12-10---------| 
E|-----------------------------------------------13-12---| 
 

Chorus 2x 

 
E|-----------------------------------------------------------------------| 
B|-----------------------------------------------------------------------| 
G|-10-10-9-10--7-7-5-7--6-6-5-6-----------5-5--------------7~-9~-10~-----| 
D|-------------------------------7-5----------8-7-5-----5----------------| 
A|------------------------------------8-7-----------7-8------------------| 
E|-----------------------------------------------------------------------| 
 

Riff De passagem 

 
E|-------------------------------------------------| 
B|-------------------------------------------------| 
G|-------------------------------------al-------| 
D|-------------------5-5-5-7-7-7-8-8-8-------------| 
A|-5-5-5-7-7-7-8-8-8-------------------------------| 
E|-------------------------------------------------| 
 

Riff 3 Variado 

 
E|-------------------------------------------------------8----------------| 
B|----------------------------------------------10-10-11----8-8-----------| 
G|-------7-9-10--14--12-12-10h12p10-9-10~--7-9-------------------10-9-10al| 
D|-8-10-------------------------------------------------------------------| 
A|------------------------------------------------------------------------| 
E|------------------------------------------------------------------------| 
 

 
E|----------------------------------------------8-8------------------17b~-| 
B|---------------------------------------------------11-10-8-8------------| 
G|-------7-9-10--14--12-12-10h12p10-9-10~--7-9-----------------10-9-------| 
D|-8-10-------------------------------------------------------------------| 
A|------------------------------------------------------------------------| 
E|------------------------------------------------------------------------| 
 

Solo 

part 1 

 
E|-------------------------------------------------------------------| 
B|-8b10r8-8b10r8-8b10r8-10-11-10-8------10-8-------------------------| 
G|---------------------------------10-9------10-9-10-9---------------| 
D|-----------------------------------------------------12-10-12-10-8-| 
A|-------------------------------------------------------------------| 
E|-------------------------------------------------------------------| 
 


 
E|-----------------------------------------------------------| 
B|-----------------------------------------------------------| 
G|-----------------------------------------------------------| 
D|----8---------10-------------------10----------------------| 
A|-12---12-10-8----12-10-8-12-10-8-7----7------7------7------| 
E|----------------------------------------10-8---10-8---10~--| 
 

part 2 

 
E|--------------------------| 
B|---------------------14---| 
G|------10-10/13h14---------| 
D|-8/10-------------15------| 
A|--------------------------| 
E|--------------------------| 
 

part 3 

 
E|-15T10-15T13p10-15T13p10-----------------------------------------------| 
B|-------------------------15T13p10-15T1310------------------------------| 
G|------------------------------------------14T12p10-14T12p10------------| 
D|------------------------------------------------------------14T12p10---| 
A|-----------------------------------------------------------------------| 
E|-----------------------------------------------------------------------| 
 

 
E|-------------------------------------------------------------13h15-----| 
B|-------------------------------------------------------13h15-------15--| 
G|----------------------------------------------12-13-15-----------------| 
D|-14T12p10----------------------------10-12-13--------------------------| 
A|----------14T12p10----------10-11-13-----------------------------------| 
E|-------------------10-12-13--------------------------------------------| 
 

part 4 

 
E|-17p13-------17p13--------18p13--------20p15-------20b~---| 
B|-------15----------15-----------15-----------17-----------| 
G|----------14----------15-----------15-----------16--------| 
D|----------------------------------------------------------| 
A|----------------------------------------------------------| 
E|----------------------------------------------------------| 
 

part 5 

 
E|--------------------------------------8--| 
B|-8-8b-8-6p5h6----8-8b-8-6p5h6---8-6-8----| 
G|-----------------------------------------| 
D|-----------------------------------------| 
A|-----------------------------------------| 
E|-----------------------------------------| 
 

part 6 

 
E|-17p13----------------13------------------------12b-13b-15b------------| 
B|------------------------------------13-17p13----------------13b~-------| 
G|-------17p14----14h17--------------------------------------------------| 
D|-------------15---------------14h17------------------------------------| 
A|---------------------------15----------------15------------------------| 
E|-----------------------------------------------------------------------| 
 

solo final 

part 1 3x 

 
E|-----------------------------------------------------------------------| 
B|-10T3-11T3-10T3-13T3-11T3-10T3-8T3-11T3-10T3-8T3-6T3-10T3-8T3-5h6p3----| 
G|-----------------------------------------------------------------------| 
D|-----------------------------------------------------------------------| 
A|-----------------------------------------------------------------------| 
E|-----------------------------------------------------------------------| 
 

part 2 2x 

 
E|-----------------------------------------------------------------------| 
B|-----------------------------------------------------------------------| 
G|-6T2-9T2-6T2-9T2-9T2-12T2-10T2-9T2-7T2-10T2-7T2-10T2-10T2-14T2-12T2----| 
D|-----------------------------------------------------------------------| 
A|-----------------------------------------------------------------------| 
E|-----------------------------------------------------------------------| 
 

 
E|-----------------------------------------6--------| 
B|-------------------------------------------2-3----| 
G|-10T2-6T2-9T2-6T2-9T2-9T2-12T2-10T2-9T2-----------| 
D|--------------------------------------------------| 
A|--------------------------------------------------| 
E|--------------------------------------------------| 
 

part 3 final 

 
E|-----------------------------------------------------------------------| 
B|-----------------------------------------------------------------------| 
G|-6T2-9T2-6T2-9T2-9T2-12T2-10T2-9T2-7T2-10T2-7T2-10T2-10T2-14T2-12T2----| 
D|-----------------------------------------------------------------------| 
A|-----------------------------------------------------------------------| 
E|-----------------------------------------------------------------------| 
 

 
E|------------------------------------------| 
B|------------------------------------------| 
G|-10T2-6T2-9T2-6T2-9T2-9T2-12T2-10T2-9T2---| 
D|------------------------------------------| 
A|------------------------------------------| 
E|------------------------------------------| 
 

 
E|--------------------------------10--------| 
B|-----------------------10-11-13-----------| 
G|---------------9-10-12--------------------| 
D|--------7-8-10----------------------------| 
A|-7-8-10-----------------------------------| 
E|------------------------------------------| 
 


 
E|-18-17-15-----------20-18-17----------22~-| 
B|----------18-17-15-----------20-18-17-----| 
G|------------------------------------------| 
D|------------------------------------------| 
A|------------------------------------------| 
E|------------------------------------------| 
share this page

See Also: