E-Chords
Children Of Bodom

Touch Like Angel of Death(Tabs)

Children Of Bodom

roll up this ad to continue

Tabbed by ESP ([email protected])

D#||---0--7--0----0--8--0----|--0--7--0----0--5--0-----||
A#||-------------------------|-------------------------||
F#||*------------------------|------------------------*||
C#||*------------------------|------------------------*||
G#||-------------------------|-------------------------||
D#||-------------------------|-------------------------||

--0--7--0----0--8--0----|--0--7--0----0--5--0----|--0--7--0----0--8--0----|
------------------------|------------------------|------------------------|
------------------------|------------------------|------------------------|
------------------------|------------------------|------------------------|
------------------------|------------------------|------------------------|
------------------------|------------------------|------------------------|

--0--7--0----0--5--0----|--7--0--0--0--8--0--0--0--|--7--0--0--0--5--0--0--0--|
------------------------|--------------------------|--------------------------|
------------------------|--------------------------|--------------------------|
------------------------|--------------------------|--------------------------|
------------------------|--------------------------|--------------------------|
------------------------|--------------------------|--------------------------|

--7--0--0--0--8--0--0--0--|--7--0--0--0--5--0--0--0--|
--------------------------|--------------------------|
--------------------------|--------------------------|
--------------------------|--------------------------|
--------------------------|--------------------------|
--------------------------|--------------------------|

--7--0--0--0--8--0--0--0--|--7--0--0--0--5--0--0--0--|
--------------------------|--------------------------|
--------------------------|--------------------------|
--------------------------|--------------------------|
--------------------------|--------------------------|
--------------------------|--------------------------|

--7--0--0--0--8--0--0--0--|------------------||---7--0--0--5--8--0--0--5--|
--------------------------|------------------||---------------------------|
--------------------------|------------------||*--------------------------|
--------------------------|------------------||*--------------------------|
--------------------------|------------------||---------------------------|
--------------------------|------------------||---------------------------|

                                                                             3x
--7--0--0--7--5--0--0--5--|--7--0--0--5--8--0--0--5--|--7----5---------------||
--------------------------|--------------------------|------------8----7-----||
--------------------------|--------------------------|----------------------*||
--------------------------|--------------------------|----------------------*||
--------------------------|--------------------------|-----------------------||
--------------------------|--------------------------|-----------------------||

------------8--------7--|-------------------||--------------------|---||--|--|
---------8-----8--------|-------------------||--------------------|---||--|--|
------9-----------8-----|--7----------------||*--9----------------|--*||--|--|
------------------------|-------------------||*--9----------------|--*||--|--|
------------------------|-------------------||---7----------------|---||--|--|
------------------------|-------------------||---0----------------|---||--|--|

--|--|--|--|--|--|-------------------|------------------|-------------------|
--|--|--|--|--|--|-------------------|------------------|-------------------|
--|--|--|--|--|--|--5----------------|------------------|-------------------|
--|--|--|--|--|--|--5----------------|------------------|--5----------------|
--|--|--|--|--|--|--3----------------|------------------|--5----------------|
--|--|--|--|--|--|-------------------|------------------|--3----------------|

-------------------|--|--|------------------------|-----------------------|
-------------------|--|--|------------------------|-----------------------|
--4----------------|--|--|------------------------|-----------------------|
--4----------------|--|--|----2--2--2----2--2--2--|----2--2--2--5----4----|
--2----------------|--|--|----2--2--2----2--2--2--|----2--2--2--5----4----|
-------------------|--|--|----0--0--0----0--0--0--|----0--0--0--3----2----|

|---------------------------------|---------------------12--10------|
|------12--12--12-----13--13--13--|---------10--12--13----------13--|
|*--9--------------9--------------|--9--12--------------------------|
|*--------------------------------|---------------------------------|
|---------------------------------|---------------------------------|
|---------------------------------|---------------------------------|

                                                                 3x
----------------------------------|-----------------------12-----||
--12--12--10------10--10----------|---------------10--12---------||
--------------12----------12--11--|--12--9--9--9----------------*||
----------------------------------|-----------------------------*||
----------------------------------|------------------------------||
----------------------------------|------------------------------||

--------------------|--------------------|--------------------|
--------------------|--------------------|--------------------|
--5--5--------------|--------------------|--3--3--------------|
--5--5--------------|--2--2--------------|--3--3--------------|
--3--3--------------|--2--2--------------|--1--1--------------|
--------------------|--0--0--------------|--------------------|

----------------------------------|--------------------------|
----------------------------------|--------------------------|
----------------------------------|--------------------------|
-------9----12----11----9----8----|--9---------8----9--------|
--9----7----10----9-----7----6----|--7----9----6----7--------|
--7-------------------------------|-------7------------------|

|---7--0--0--5--8--0--0--5--|--7--0--0--7--5--0--0--5--|
|---------------------------|--------------------------|
|*--------------------------|--------------------------|
|*--------------------------|--------------------------|
|---------------------------|--------------------------|
|---------------------------|--------------------------|
                                                  3x
--7--0--0--5--8--0--0--5--|--7----5---------------||
--------------------------|------------8----7-----||
--------------------------|----------------------*||
--------------------------|----------------------*||
--------------------------|-----------------------||
--------------------------|-----------------------||

----------------------------------|--------------------------6-6-6-6-|
----------------------------------|------------------5-5-5-5---------|
--------------------------4-4-4-4-|--3-3-3-3-6-6-6-6-----------------|
--2-2-2-2-4-4-4-4-5-5-5-5---------|----------------------------------|
----------------------------------|----------------------------------|
----------------------------------|----------------------------------|

--7--7--5--3-----------3--|--------------3----2----|
--------------5--3--------|--5-----3--5------------|
--------------------4-----|-----4------------------|
--------------------------|------------------------|
--------------------------|------------------------|
--------------------------|------------------------|

|-----------------------------------|--------------------------6-6-6-6-|
|-----------------------------------|------------------5-5-5-5---------|
|*--------------------------4-4-4-4-|--3-3-3-3-6-6-6-6-----------------|
|*--2-2-2-2-4-4-4-4-5-5-5-5---------|----------------------------------|
|-----------------------------------|----------------------------------|
|-----------------------------------|----------------------------------|

                                                    4x
--7--7--5--3-----------3--|--------------3----2-----||--7----------------|
--------------5--3--------|--5-----3--5-------------||-------------------|
--------------------4-----|-----4------------------*||-------------------|
--------------------------|------------------------*||-------------------|
--------------------------|-------------------------||-------------------|
--------------------------|-------------------------||-------------------|

--10--------5--------|--7----------------|--8------7----5------|
---------------------|-------------------|---------------------|
---------------------|-------------------|---------------------|
---------------------|-------------------|---------------------|
---------------------|-------------------|---------------------|
---------------------|-------------------|---------------------|

--3----------------|--6--------1--------|--3----------------|
-------------------|--------------------|-------------------|
-------------------|--------------------|-------------------|
-------------------|--------------------|-------------------|
-------------------|--------------------|-------------------|
-------------------|--------------------|-------------------|

--7----------------|--10--------5--------|--7----------------|
-------------------|---------------------|-------------------|
-------------------|---------------------|-------------------|
-------------------|---------------------|-------------------|
-------------------|---------------------|-------------------|
-------------------|---------------------|-------------------|

--------10-----------------||---0--7--7--7--0--8--8--8--|
-----8------8--------------||---------------------------|
--9---------------4--7--5--||*--------------------------|
---------------5-----------||*--------------------------|
---------------------------||---------------------------|
---------------------------||---------------------------|

--0--3--5--7--8--12--10--8--|--7--7--5--3--5--5--3--2--|
----------------------------|--------------------------|
----------------------------|--------------------------|
----------------------------|--------------------------|
----------------------------|--------------------------|
----------------------------|--------------------------|

--3--0--0--0--5--7--12-----||----------------12----|------------------------|
---------------------------||--15------------------|--12--------------------|
--------------------------*||----------------------|----------14----12------|
--------------------------*||----------------------|------------------------|
---------------------------||----------------------|------------------------|
---------------------------||----------------------|------------------------|

------------------12--14--15--15--15--14--12--11--|--12----------------|
------12--14--15----------------------------------|--------------------|
--14----------------------------------------------|--------------------|
--------------------------------------------------|--------------------|
--------------------------------------------------|--------------------|
--------------------------------------------------|--------------------|

--------------19--15--------------17--15----|
----------17----------15------15------------|
------16------------------14----------------|
--17----------------------------------------|
--------------------------------------------|
--------------------------------------------|

--17--15--14--17--15--14--12--11--12------|--12----------------|
------------------------------------------|--------------------|
------------------------------------------|--------------------|
------------------------------------------|--------------------|
------------------------------------------|--------------------|
------------------------------------------|--------------------|

--------------12------------|--12----------------|
--12--10--------------------|--------------------|
----------12----------------|--------------------|
----------------------------|--------------------|
----------------------------|--------------------|
----------------------------|--------------------|

--12/-------24-------0--------|--4b-------4b-------3--------|
-------------------------------|-----------------------------|
-------------------------------|-----------------------------|
-------------------------------|-----------------------------|
-------------------------------|-----------------------------|
-------------------------------|-----------------------------|

--16r---14----------------|--------------||
--------------16----14----|--14b---14----||
--------------------------|--------------||
--------------------------|--------------||
--------------------------|--------------||
--------------------------|--------------||




_______________________________________________________
Contribuição: jefferson hita([email protected])
share this page

See Also: