E-Chords
Children Of Bodom

The Nail(Tabs)

Children Of Bodom

roll up this ad to continue

The Nail 
As recorded by Children of Bodom 
(from the Album Hatebreeder) 
 
Music by Children of Bodom 
 
 
D#||------------------|------------------|------------------| 
A#||------------------|------------------|------------------| 
F#||------------------|------------------|------------------| 
C#||------------------|------------------|------------------| 
G#||------------------|------------------|------------------| 
D#||------------------|------------------|------------------| 
 
-----------------------|-------------------------------| 
-----------------------|-------------------------------| 
----------9---8--------|--9--9--9--9--9----12--12--12--| 
--8--8-7---------------|--9--9--9--9--9----12--12--12--| 
-----------------------|--7--7--7--7--7----10--10--10--| 
-----------------------|-------------------------------| 
 
---------------------------|-------------------------------| 
---------------------------|-------------------------------| 
--9--9--9--9--9----5----7--|--9--9--9--9--9----12--12--12--| 
--9--9--9--9--9----5----7--|--9--9--9--9--9----12--12--12--| 
--7--7--7--7--7----3----5--|--7--7--7--7--7----10--10--10--| 
---------------------------|-------------------------------| 
 
-----------------------|-------------------------------| 
-----------------------|-------------------------------| 
----------9---8--------|--9--9--9--9--9----12--12--12--| 
--8--8-7---------------|--9--9--9--9--9----12--12--12--| 
-----------------------|--7--7--7--7--7----10--10--10--| 
-----------------------|-------------------------------| 
 
---------------------------|-------------------------------| 
---------------------------|-------------------------------| 
--9--9--9--9--9----5----7--|--9--9--9--9--9----12--12--12--| 
--9--9--9--9--9----5----7--|--9--9--9--9--9----12--12--12--| 
--7--7--7--7--7----3----5--|--7--7--7--7--7----10--10--10--| 
---------------------------|-------------------------------| 
 
-----------------------|---------------------------------|-------------------| 
-----------------------|---------------------------------|-------------------| 
----------9---8--------|---------------------------------|-------------------| 
--8--8-7---------------|--------5--7---10-9-8-7----------|-------------------| 
-----------------------|--5-7-8-----------------10-9-8-7-|--6----------------| 
-----------------------|---------------------------------|-------------------| 
 
|----------------------------------------|--------------------------------| 
|----------------------------------------|--------------------------------| 
|*---------------------------------------|--------------------------------| 
|*--7--7-7-7-7-7-7-10--10-10-10-10-10-10-|--9--9-9-9-9-9-9-9--9-9-9-9-9-9-| 
|----------------------------------------|--------------------------------| 
|----------------------------------------|--------------------------------| 
 
--------------------------------|-----------------------------|| 
--------------------------------|-----------------------------|| 
--------------------------------|----------------------------*|| 
--7--7-7-7-7-7-7----------------|----------------------------*|| 
-----------------7--7-7-7-7-7-7-|-----------------------------|| 
--------------------------------|--7--7-7-7-7-7-7-8----10-----|| 
 
---------------------------------| 
---------------------------------| 
*--------------------------------| 
*--7--7-7-7-7-7-7-7--7-7-7-7-7-7-| 
---------------------------------| 
---------------------------------| 
 
----------------------------------------------|--------------------------------| 
----------------------------------------------|--------------------------------| 
----------------------------------------------|--------------------------------| 
--10--10-10-10-10-10-10-10--10-10-10-10-10-10-|--9--9-9-9-9-9-9-9--9-9-9-9-9-9-| 
----------------------------------------------|--------------------------------| 
----------------------------------------------|--------------------------------| 
 
--------------------------------|--------------------------------| 
--------------------------------|--------------------------------| 
--------------------------------|--------------------------------| 
--9--9-9-9-9-9-9-9--9-9-9-9-9-9-|--7--7-7-7-7-7-7-7--7-7-7-7-7-7-| 
--------------------------------|--------------------------------| 
--------------------------------|--------------------------------| 
 
--------------------------------|--------------------------------| 
--------------------------------|--------------------------------| 
--------------------------------|--------------------------------| 
--------------------------------|--------------------------------| 
--7--7-7-7-7-7-7-7--7-7-7-7-7-7-|--------------------------------| 
--------------------------------|--7--7-7-7-7-7-7-7--7-7-7-7-7-7-| 
 
-----------------------------------||-------------------|---------------------| 
-----------------------------------||-------------------|---------------------| 
----------------------------------*||--9----------------|------7----5----7----| 
----------------------------------*||--9----------------|------9----5----7----| 
-----------------------------------||--7----------------|------9----3----5----| 
--7--7-7-7-7-7-7-8--8-8-10--10-10--||--0----------------|------7--------------| 
 
-------------------|---------------------|-------------------| 
-------------------|---------------------|-------------------| 
--9----------------|-----------7---------|--9----------------| 
--9----------------|------7----7----9----|--9----------------| 
--7----------------|------7----5----9----|--7----------------| 
--0----------------|------5---------7----|--0----------------| 
 
---------------------|--------------------|------------------| 
---------------------|--------------------|------------------| 
------7----5----7----|--9--------9--------|------------------| 
------9----5----7----|--9--------9--------|------------------| 
------9----3----5----|--7--------7--------|------------------| 
------7--------------|--0--------0--------|------------------| 
 
----------------------------------|----------------------------------| 
----------------------------------|----------------------------------| 
----------------------------------|----------------------------------| 
----------------------------------|----------5-5-----5-5-7-7-9-9-9-9-| 
--7-7-7-7-7-7-7-7-7-7-7-7-7-7-7-7-|--7-7-----------------------------| 
----------------------------------|------8-8-----8-8-----------------| 
 
----------------------------------|----------------------------------| 
----------------------------------|----------------------------------| 
----------------------------------|----------------------------------| 
----------------------------------|----------5-5-----5-5-7-7-9-9-9-9-| 
--7-7-7-7-7-7-7-7-7-7-7-7-7-7-7-7-|--7-7-----------------------------| 
----------------------------------|------8-8-----8-8-----------------| 
 
----------------------------------|----------------------------------| 
----------------------------------|----------------------------------| 
----------------------------------|----------------------------------| 
----------------------------------|----------5-5-----5-5-7-7-9-9-9-9-| 
--7-7-7-7-7-7-7-7-7-7-7-7-7-7-7-7-|--7-7-----------------------------| 
----------------------------------|------8-8-----8-8-----------------| 
 
----------------------------------|----------------------------------| 
----------------------------------|----------------------------------| 
----------------------------------|----------------------------------| 
----------------------------------|----------5-5-----5-5-7-7-9-9-9-9-| 
--7-7-7-7-7-7-7-7-7-7-7-7-7-7-7-7-|--7-7-----------------------------| 
----------------------------------|------8-8-----8-8-----------------| 
 
-----------------------------------|----------------------| 
-----------------------------------|----------------------| 
-------8-------7-------5-------3---|----8----7----5--7----| 
-----8---8---7---7---5---5---3---3-|----8----7----5--7----| 
--10-------8-------6-------5-------|----6----5----3--5----| 
-----------------------------------|----------------------| 
 
-----------------------------------|----------------------| 
-----------------------------------|----------------------| 
-------8-------7-------5-------3---|----8----7----5--7----| 
-----8---8---7---7---5---5---3---3-|----8----7----5--7----| 
--10-------8-------6-------5-------|----6----5----3--5----| 
-----------------------------------|----------------------| 
 
--------------------------------------------------| 
--------------------------------------------------| 
--12-12-12-12-14-14-14-14-12-12-12-12-11-11-11-11-| 
--12-12-12-12-14-14-14-14-12-12-12-12-11-11-11-11-| 
--10-10-10-10-12-12-12-12-10-10-10-10-9--9--9--9--| 
--------------------------------------------------| 
 
--------------------------------------|----------------------------------| 
--------------------------------------|----------------------------------| 
--9-9-9-9-11-11-11-11-9-9-9-9-7-7-7-7-|--5-5-5-5-7-7-7-7-5-5-5-5-4-4-4-4-| 
--9-9-9-9-11-11-11-11-9-9-9-9-7-7-7-7-|--5-5-5-5-7-7-7-7-5-5-5-5-4-4-4-4-| 
--7-7-7-7-9--9--9--9--7-7-7-7-5-5-5-5-|--3-3-3-3-5-5-5-5-3-3-3-3-2-2-2-2-| 
--------------------------------------|----------------------------------| 
 
--7-7-7-7-7-7-7-7-8-8-8-8-10-10-10-10-| 
--7-7-7-7-7-7-7-7-8-8-8-8-10-10-10-10-| 
--------------------------------------| 
--------------------------------------| 
--------------------------------------| 
--------------------------------------| 
 
--------------------------------------------------| 
--------------------------------------------------| 
--12-12-12-12-14-14-14-14-12-12-12-12-11-11-11-11-| 
--12-12-12-12-14-14-14-14-12-12-12-12-11-11-11-11-| 
--10-10-10-10-12-12-12-12-10-10-10-10-9--9--9--9--| 
--------------------------------------------------| 
 
--------------------------------------|----------------------------------| 
--------------------------------------|----------------------------------| 
--9-9-9-9-11-11-11-11-9-9-9-9-7-7-7-7-|--9-9-9-9-7-7-7-7-5-5-5-5-4-4-4-4-| 
--9-9-9-9-11-11-11-11-9-9-9-9-7-7-7-7-|--9-9-9-9-7-7-7-7-5-5-5-5-4-4-4-4-| 
--7-7-7-7-9--9--9--9--7-7-7-7-5-5-5-5-|--7-7-7-7-5-5-5-5-3-3-3-3-2-2-2-2-| 
--------------------------------------|----------------------------------| 
 
--7-7-7-7-7-7-7-7-8-8-8-8-10-10-10-10-| 
--7-7-7-7-7-7-7-7-8-8-8-8-10-10-10-10-| 
--------------------------------------| 
--------------------------------------| 
--------------------------------------| 
--------------------------------------| 
 
------------------------------------------|----------------------------------| 
--8-8-8-8-8-8-8-8-10-10-10-10-10-10-10-10-|--8-8-8-8-8-8-8-8-7-7-7-7-7-7-7-7-| 
------------------------------------------|----------------------------------| 
------------------------------------------|----------------------------------| 
------------------------------------------|----------------------------------| 
------------------------------------------|----------------------------------| 
 
------------------------------------------|----------------------------------| 
--8-8-8-8-8-8-8-8-10-10-10-10-10-10-10-10-|--8-8-8-8-8-8-8-8-7-7-7-7-7-7-7-7-| 
------------------------------------------|----------------------------------| 
------------------------------------------|----------------------------------| 
------------------------------------------|----------------------------------| 
------------------------------------------|----------------------------------| 
 
----------------------------------|----------------------------------| 
--8-8-8-8-8-8-8-8-7-7-7-7-7-7-7-7-|--5-5-5-5-5-5-5-5-4-4-4-4-4-4-4-4-| 
----------------------------------|----------------------------------| 
----------------------------------|----------------------------------| 
----------------------------------|----------------------------------| 
----------------------------------|----------------------------------| 
 
----------------------------------|----------------------------------| 
--7-7-7-7-7-7-7-7-7-7-7-7-7-7-7-7-|--7-7-7-7-7-7-7-7-7-7-7-7-7-7-7-7-| 
----------------------------------|----------------------------------| 
----------------------------------|----------------------------------| 
----------------------------------|----------------------------------| 
----------------------------------|----------------------------------| 
 
------------------------------------------|----------------------------------| 
--8-8-8-8-8-8-8-8-10-10-10-10-10-10-10-10-|--8-8-8-8-8-8-8-8-7-7-7-7-7-7-7-7-| 
------------------------------------------|----------------------------------| 
------------------------------------------|----------------------------------| 
------------------------------------------|----------------------------------| 
------------------------------------------|----------------------------------| 
 
------------------------------------------|----------------------------------| 
--8-8-8-8-8-8-8-8-10-10-10-10-10-10-10-10-|--8-8-8-8-8-8-8-8-7-7-7-7-7-7-7-7-| 
------------------------------------------|----------------------------------| 
------------------------------------------|----------------------------------| 
------------------------------------------|----------------------------------| 
------------------------------------------|----------------------------------| 
 
----------------------------------|----------------------------------| 
--8-8-8-8-8-8-8-8-7-7-7-7-7-7-7-7-|--5-5-5-5-5-5-5-5-4-4-4-4-4-4-4-4-| 
----------------------------------|----------------------------------| 
----------------------------------|----------------------------------| 
----------------------------------|----------------------------------| 
----------------------------------|----------------------------------| 
 
----------------------------------|----------------------------------| 
--7-7-7-7-7-7-7-7-7-7-7-7-7-7-7-7-|--7-7-7-7-7-7-7-7-7-7-7-7-7-7-7-7-| 
----------------------------------|----------------------------------| 
----------------------------------|----------------------------------| 
----------------------------------|----------------------------------| 
----------------------------------|----------------------------------| 
 
-------------------------------|---------------------------| 
-------------------------------|---------------------------| 
--9--9--9--9--9----12--12--12--|--9--9--9--9--9----5----7--| 
--9--9--9--9--9----12--12--12--|--9--9--9--9--9----5----7--| 
--7--7--7--7--7----10--10--10--|--7--7--7--7--7----3----5--| 
-------------------------------|---------------------------| 
 
-------------------------------|-----------------------| 
-------------------------------|-----------------------| 
--9--9--9--9--9----12--12--12--|----------9---8--------| 
--9--9--9--9--9----12--12--12--|--8--8-7---------------| 
--7--7--7--7--7----10--10--10--|-----------------------| 
-------------------------------|-----------------------| 
 
--------------------------------------------------| 
--------------------------------------------------| 
--------------------------------------------14-16-| 
-----------------------------------14-16-17-------| 
--------------------------14-16-17----------------| 
--12-14-15-17-12-14-15-17-------------------------| 
 
-----------15-17----------17-19-22r-----| 
--15-17-19-------17-19-20---------------| 
----------------------------------------| 
----------------------------------------| 
----------------------------------------| 
----------------------------------------| 
 
--19--22-21-19-17--21-19-17-15--19-17-15-14----| 
-----------------------------------------------| 
-----------------------------------------------| 
-----------------------------------------------| 
-----------------------------------------------| 
-----------------------------------------------| 
 
--14-16-20-17---16-19-16-19-20-19-17----------| 
-------------------------------------20-19-17-| 
----------------------------------------------| 
----------------------------------------------| 
----------------------------------------------| 
----------------------------------------------| 
 
------------------------------------||---------------------------------| 
------------------------------------||---------------------------------| 
--19-18-17--------------------------||*--------------------------------| 
-----------19-18-16-----------------||*--7--7-7-7-7-7-7-7--7-7-7-7-7-7-| 
--------------------20-19-17--------||---------------------------------| 
------------------------------------||---------------------------------| 
 
----------------------------------------------|--------------------------------| 
----------------------------------------------|--------------------------------| 
----------------------------------------------|--------------------------------| 
--10--10-10-10-10-10-10-10--10-10-10-10-10-10-|--9--9-9-9-9-9-9-9--9-9-9-9-9-9-| 
----------------------------------------------|--------------------------------| 
----------------------------------------------|--------------------------------| 
 
--------------------------------|--------------------------------| 
--------------------------------|--------------------------------| 
--------------------------------|--------------------------------| 
--9--9-9-9-9-9-9-9--9-9-9-9-9-9-|--7--7-7-7-7-7-7-7--7-7-7-7-7-7-| 
--------------------------------|--------------------------------| 
--------------------------------|--------------------------------| 
 
--------------------------------|--------------------------------| 
--------------------------------|--------------------------------| 
--------------------------------|--------------------------------| 
--------------------------------|--------------------------------| 
--7--7-7-7-7-7-7-7--7-7-7-7-7-7-|--------------------------------| 
--------------------------------|--7--7-7-7-7-7-7-7--7-7-7-7-7-7-| 
 
-----------------------------------||--------------------------------| 
-----------------------------------||--------------------------------| 
----------------------------------*||--------------------------------| 
----------------------------------*||--------------------------------| 
-----------------------------------||--------------------------------| 
--7--7-7-7-7-7-7-8--8-8-10--10-10--||--0-2-2-2-2--2-2-2--2-2-2-2-2-2-| 
 
-----------------------------|--------------------------------| 
-----------------------------|--------------------------------| 
-----------------------------|--------------------------------| 
------------------------5----|--------------------------------| 
------------------------3----|--------------------------------| 
--0-2-2-2-2--2-2-2--2-2------|--0-2-2-2-2--2-2-2--2-2-2-2-2-2-| 
 
-----------------------------|--------------------------------| 
-----------------------------|--------------------------------| 
-----------------------------|--------------------------------| 
------------------------7----|--------------------------------| 
------------------------5----|--------------------------------| 
--0-2-2-2-2--2-2-2--2-2------|--0-2-2-2-2--2-2-2--2-2-2-2-2-2-| 
 
-----------------------------|--------------------------------| 
-----------------------------|--------------------------------| 
-----------------------------|--------------------------------| 
------------------------5----|--------------------------------| 
------------------------3----|--------------------------------| 
--0-2-2-2-2--2-2-2--2-2------|--0-2-2-2-2--2-2-2--2-2-2-2-2-2-| 
 
-----------------------------|---------------------------|------------------| 
-----------------------------|---------------------------|------------------| 
-----------------------------|---------------------------|------------------| 
------------------------9----|------------5--5--------4--|------------------| 
------------------------7----|------------3--3--------2--|------------------| 
--0-2-2-2-2--2-2-2--2-2------|--0--2-2-2--------0--0-----|------------------| 
 
-------------------------|-------------------------|-------------------------| 
-------------------------|-------------------------|-------------------------| 
-------------------------|-------------------------|-------------------------| 
---------------4------4--|---------------5------5--|---------------4------4--| 
---------------2------2--|---------------3------3--|---------------2------2--| 
--0------0--0------------|--0------0--0------------|--0------0--0------------| 
 
---------------------|-------------------------|-------------------------| 
---------------------|-------------------------|-------------------------| 
---------------------|-------------------------|-------------------------| 
--5------4--2--------|---------------4------4--|---------------5------5--| 
--3------2--2--------|---------------2------2--|---------------3------3--| 
------------0--------|--0------0--0------------|--0------0--0------------| 
 
-------------------------|---------------------| 
-------------------------|---------------------| 
-------------------------|---------------------| 
---------------4------4--|--5------4--2--------| 
---------------2------2--|--3------2--2--------| 
--0------0--0------------|------------0--------| 
 
-------------------------------------------------| 
---------------------10--12--10--------------10--| 
--9--11--12--11--12--------------12--11--12------| 
-------------------------------------------------| 
-------------------------------------------------| 
-------------------------------------------------| 
 
-----------------------------------------------| 
---------------------10--12--10----------------| 
--9--11--12--11--12--------------12--11--9--8--| 
-----------------------------------------------| 
-----------------------------------------------| 
-----------------------------------------------| 
 
-------------------------------------------------| 
---------------------10--12--10--------------10--| 
--9--11--12--11--12--------------12--11--12------| 
-------------------------------------------------| 
-------------------------------------------------| 
-------------------------------------------------| 
 
---------------------------------| 
--12--10-------------------------| 
----------12--11--9--8--9--------| 
---------------------------------| 
---------------------------------| 
---------------------------------| 
 
-------------------------------------------------| 
---------------------10--12--10--------------10--| 
--9--11--12--11--12--------------12--11--12------| 
-------------------------------------------------| 
-------------------------------------------------| 
-------------------------------------------------| 
 
-----------------------------------------------| 
---------------------10--12--10----------------| 
--9--11--12--11--12--------------12--11--9--8--| 
-----------------------------------------------| 
-----------------------------------------------| 
-----------------------------------------------| 
 
----------------------17--19--17--------------17--| 
--17--19--20--19--20--------------20--19--20------| 
--------------------------------------------------| 
--------------------------------------------------| 
--------------------------------------------------| 
--------------------------------------------------| 
 
--24--22--20------------------------|-----------------------------------| 
--------------24--22--19--17--------|-----------------10----------------| 
------------------------------------|--9------11--12--------12----11----| 
------------------------------------|-----------------------------------| 
------------------------------------|-----------------------------------| 
------------------------------------|-----------------------------------| 
 
--------------------------------------|-------------------------------------| 
--------10----12----13----12----10----|--------10----12----10---------------| 
--12----------------------------------|--12----------------------11----8----| 
--------------------------------------|-------------------------------------| 
--------------------------------------|-------------------------------------| 
--------------------------------------|-------------------------------------| 
 
share this page

See Also: