E-Chords
Children Of Bodom

Sixpounder(Tabs)

Children Of Bodom

roll up this ad to continue

Key: D
Children of Bodom 
 Sixpounder 
 From album: Hate crew deathroll 
 
  
 Tuning D (D G C F A D) 
  
 Riff 1 
|---------------------------------------------------------------------------| 
|---------------------------------------------------------------------------| 
|---------------------------------------------------------------------------| 
|---------------------------------------------------------------------5\4---| 
|---2----2-6-5-3-5-4-3-2-------3---------2--6-5-3-5-4-3-2-----3/4-----3\2---| 
|-0-0----0-4-3-1-3-2-1-0-00000-1-00000---0--4-3-1-3-2-1-0-0-0-1/2-0-0-------| 
 
 
 
|---------------------------------------------------------------------------| 
|---------------------------------------------------------------------------| 
|------------------------------------------------------------------------7--| 
|---------------------------------------------------------------5\4-\----7--| 
|--2-6-5-3-5-4-3-2-------3---------2--6-5-3-5-4-3-2-----3/4-----3\2-\----5--| 
|--0-4-3-1-3-2-1-0-00000-1-00000---0--4-3-1-3-2-1-0-0-0-1/2-0-0-------------| 
 
 
 Riff 2 
|----------------------------|----------|----------------------------| 
|----------------------------|-15b17~---|----------------------------| 
|-------Drums and keyboards--|----------|-------------------7--------| 
|----------------------------|----------|-------------------7--------| 
|----------------------------|----------|-------------------5--------| 
|----------------------------|----------|----------------------------| 
 
 Riff 3 
 2x 
|-------------------------------------------------------------| 
|-------------------------------------------------------------| 
|--7-------8-7-------5-7----------------7-------8-7-------5-7-| 
|--7-------8-7-------5-7----------------7-------8-7-------5-7-| 
|----0-0-0-----0-0-0-----0-0-0-0-0-0-0----0-0-0-----0-0-0-----| 
|-------------------------------------------------------------| 
 
|------------------------| 
|------------------------| 
|-------1010101014141414-| 
|-121212-----------------| 
|------------------------| 
|------------------------| 
 
 
 
 Riff 4 
|------------------------------------------------------------------| 
|------------------------------------------------------------------| 
|--------------------------------------------------------------7---| 
|-2---2--------2---2----------------2---2------2---2-----------7---| 
|-2---2--------2---2------55553333--2---2------2---2-----------5---| 
|-0-0-0-000000-0-0-000000-----------0-0-000000-0---0000h33---------| 
 
  
|------------------------------------------------------------------| 
|------------------------------------------------------------------| 
|--------------------------------------------------------------7---| 
|-2---2--------2---2----------------2---2------2---2-----------7---| 
|-2---2--------2---2------55553333--2---2------2---2-----------5---| 
|-0-0-0-000000-0-0-000000-----------0-0-000000-0---0000h33---------| 
 
|-------------------------------------------------------------| 
|-------------------------------------------------------------| 
|--7-------8-7-------5-7----------------7-------8-7-------5-7-| 
|--7-------8-7-------5-7----------------7-------8-7-------5-7-| 
|----0-0-0-----0-0-0-----0-0-0-0-0-0-0----0-0-0-----0-0-0-----| 
|-------------------------------------------------------------| 
 
 
|------------------------| 
|------------------------| 
|-------1010101014141414-| 
|-121212-----------------| 
|------------------------| 
|------------------------| 
 
 
|-------------------------------------------------------------------| 
|-------------------------------------------------------------------| 
|--7-------8-7-------5-7----------------7-------8-7-------5---------| 
|--7-------8-7-------5-7----------------7-------8-7-------5--2-2----| 
|----0-0-0-----0-0-0-----0-0-0-0-0-0-0----0-0-0-----0-0-0----2-2----| 
|------------------------------------------------------------0-0----| 
 
 Riff 5 
|-------------------------------------------------------------------| 
|-------------------------------------------------------------------| 
|-------------------------------------------------------------------| 
|---------------------------------------------------------------5\4-| 
|---2-6-5-3-5-4-3-2-------3---------2-6-5-3-5-4-3-2-----3/4-----3\2-| 
|-0-0-4-3-1-3-2-1-0-00000-1-00000---0-4-3-1-3-2-1-0-0-0-1/2-0-0-----| 
 
 
|--------------------------------------------------------------------| 
|--------------------------------------------------------------------| 
|--7--------9---------------------------------------------7--------9-| 
|--7--------9-----------------------------------5\4-------7--------9-| 
|--5--------7-------2-6-5-3-5-4-3-2-----3/4-----3\2-------5--------7-| 
|-------------------0-4-3-1-3-2-1-0-0-0-1/2-0-0----------------------| 
 
 
|--------------------------------------------------------------------| 
|--------------------------------------------------------------------| 
|-------------------------------------7--------9---------------------| 
|-------------------------------------7--------9--------9--------8---| 
|-----------------------------3\2-----5--------7--------9--------8---| 
|-0-4-3-1-3-2-1-0-0-0-1/2-0-0---------------------------7--------6---| 
 
 
 Solo 1 
|----------------------------------------------|---------------------| 
|----------------------------------------------|---------------------| 
|----------???????????-------------------------|---------------------| 
|----------???????????-------------------------|---------------------| 
|----------------------------------------------|--2--3--4--5---7-----| 
|----------------------------------------------|--000111222333-5-----| 
 
 
 
|-------------------------------------------------------------| 
|-------------------------------------------------------------| 
|--7-------8-7-------5-7----------------7-------8-7-------5-7-| 
|--7-------8-7-------5-7----------------7-------8-7-------5-7-| 
|----0-0-0-----0-0-0-----0-0-0-0-0-0-0----0-0-0-----0-0-0-----| 
|-------------------------------------------------------------| 
 
 
|------------------------| 
|------------------------| 
|-------1010101014141414-| 
|-121212-----------------| 
|------------------------| 
|------------------------| 
 
 
 
|------------------------------------------------------------------------| 
|------------------------------------------------------------------------| 
|--7-------8-7-------5-7----------------7-------8-7-------5-7------------| 
|--7-------8-7-------5-7----------------7-------8-7-------5-7------------| 
|----0-0-0-----0-0-0-----0-0-0-0-0-0-0----0-0-0-----0-0-0-----2-3-4-5----| 
|-------------------------------------------------------------0011223----| 
  
 
 
 
 Riff 4 
 
 
 
 
 
 Solo 2 (rhythm) 
 
|------------------------------------------------------------------------------| 
|------------------------------------------------------------------------------| 
|--5------8---------5------------8--------7------10-----------7------------10--| 
|--5------8----8----5------6-----8--------7------10----10-----7------8-----10--| 
|--3------6----8----3------6-----6--------5------8-----10-----5------8-----8---| 
|--------------6-----------4---------------------------8-------------6---------| 
 
 
|-----------------------------------------------------------------------| 
|-----------------------------------------------------------------------| 
|--7-----5-----8-----5-----7-----5-----8-----5--------------------------| 
|--7-----5-----8-----5-----7-----5-----8-----5--------------------------| 
|--5-----3-----6-----3-----5-----3-----6-----3--------------------------| 
|-----------------------------------------------------------------------| 
 
 
|-----------------------------------------------------------------------| 
|-----------------------------------------------------------------------| 
|--7-------8-7-------5-7----------------7-------8-7-------5-7-----------| 
|--7-------8-7-------5-7----------------7-------8-7-------5-7-----------| 
|----0-0-0-----0-0-0-----0-0-0-0-0-0-0----0-0-0-----0-0-0-----2-3-4-5---| 
|-------------------------------------------------------------0011223---| 
 
|-------------------------------------------------------------| 
|-------------------------------------------------------------| 
|--7-------8-7-------5-7----------------7-------8-7-------5-7-| 
|--7-------8-7-------5-7----------------7-------8-7-------5-7-| 
|----0-0-0-----0-0-0-----0-0-0-0-0-0-0----0-0-0-----0-0-0-----| 
|-------------------------------------------------------------| 
 
 
|------------------------| 
|------------------------| 
|-------1010101014141414-| 
|-121212-----------------| 
|------------------------| 
|------------------------| 
 
 
|----------------------------------------------------------------------| 
|----------------------------------------------------------------------| 
|--7-------8-7-------5-7----------------7-------8-7-------5------------| 
|--7-------8-7-------5-7----------------7-------8-7-------5--2-2-------| 
|----0-0-0-----0-0-0-----0-0-0-0-0-0-0----0-0-0-----0-0-0----2-2-------| 
|------------------------------------------------------------0-0-------| 
 
 
 
 Riff 5 
 
I am almost positive that this is how it is played...if you have any suggestions email me at [email protected] 
 
share this page

See Also: