E-Chords
Children Of Bodom

Shovel Knockout (solo)(Tabs)

Children Of Bodom

roll up this ad to continue

 
Guitar Lead: 

e|----------------------------------------------------------------------| 
B|----------------------------------------------------------------------| 
G|--9\7~---9b10r9--9~--7/9-10-12--12b13r12--10--12--10--8--8b10r8--10---| 
D|----------------------------------------------------------------------| 
A|----------------------------------------------------------------------| 
E|----------------------------------------------------------------------| 

e|----------------------------------------------------------------------| 
B|----------8---------9-----------10~---6/10----12b13--12~~--10/12--13--| 
G|--6h8h10----8h10h12---10h12h13-------------9--------------------------| 
D|----------------------------------------------------------------------| 
A|----------------------------------------------------------------------| 
E|----------------------------------------------------------------------| 

e|----------------------------------------------------------------------| 
B|--15--15b16r15--13--15--13--------------------------------------------| 
G|----------------------------15--15b16r15--12--/15--/15--/12--/10------| 
D|----------------------------------------------------------------------| 
A|----------------------------------------------------------------------| 
E|----------------------------------------------------------------------| 


Guitar Solo: 
e|---------8----------------8--------------------11--10--8------8-------| 
B|------------11p8-------------11p8---------8---------------11-----11---| 
G|--10b11-----------10b11------------10b11------------------------------| 
D|----------------------------------------------------------------------| 
A|----------------------------------------------------------------------| 
E|----------------------------------------------------------------------| 

e|----------------------------------------------------------------------| 
B|--9--8--9--8----------------------------------------------------------| 
G|--------------11--10--8-------------------------------------8---------| 
D|-------------------------10--8~---------------8------10--8-----10-----| 
A|----------------------------------8b9--10--8-----10-------------------| 
E|----------------------------------------------------------------------| 
Palm Mute                                

e|----------------------------------------------9--8--8--/18--15---------| 
B|---------11-----------------------------9--8---------------------------| 
G|--10--8--10b11r10--8---------10--9--9---------------------------18-----| 
D|----------------------10~----------------------------------------------| 
A|-----------------------------------------------------------------------| 
E|-----------------------------------------------------------------------| 

e|----------------------15-16-18-/20-20-20-18-18-18-16-16-16-15-15-15----| 
b|------------15-16-18---------------------------------------------------| 
G|--13-15-17-------------------------------------------------------------| 
D|-----------------------------------------------------------------------| 
A|-----------------------------------------------------------------------| 
E|-----------------------------------------------------------------------| 

e|--15------------------------------------------11h14p11-----------------| 
B|--18b20r18b20r18p16---------------12--11--12------------12--------14---| 
G|---------------------17b19r17~\-----------------------------11/13------| 
D|-----------------------------------------------------------------------| 
A|-----------------------------------------------------------------------| 
E|-----------------------------------------------------------------------| 

e|--13--14--14h16p14p13-----------------------------------------| 
B|------------------------16---\---/--\---/---\---/--\----------| 
G|------------------------------\-/----\-/-----\-/----\---------| 
D|-------------------------------v------v-------v------\--------| 
A|------------------------------------------------------\-------| 
E|-------------------------------------------------------\------|  
share this page

See Also: