E-Chords
Children Of Bodom

Not My Funeral(Tabs)

Children Of Bodom

roll up this ad to continue

Alexi's Part: 
                                                              
D----------------------------|----------------------------| 
A----------------------------|----------------------------| 
F----------------------------|----------------------------| 
C----------------------------|----------------------------| 
G--7-----7h-8--7-------------|-----6-----6-----6-----6----| 
D-----0-----------0--0--0----|--0-----0-----0-----0-------| 

                                                           
D----------------------------|----------------------------| 
A----------------------------|----------------------------| 
F----------------------------|----------------------------| 
C----------------------------|-----------------7----------| 
G--7-----7h-8--7-------------|--10-------7-----------6----| 
D-----0-----------0--0--0----|-----6--0-----5-----8-------| 

                                                           
D----------------------------|----------------------------| 
A----------------------------|----------------------------| 
F----------------------------|----------------------------| 
C----------------------------|----------------------------| 
G--7-----7h-8--7-------------|-----5-----5-----5-----5----| 
D-----0-----------0--0--0----|--0-----0-----0-----0-------| 

                                                           
D----------------------------|----------------------------| 
A----------------------------|----------------------------| 
F----------------------------|----------------------------| 
C--2--------4--------5-------|--4--------5--------8-------| 
G--0--------2--------3-------|--2--------3--------6-------| 
D----------------------------|----------------------------| 

                                                           
D----------------------------|----------------------------| 
A----------------------------|----------------------------| 
F----------------------------|----------------------------| 
C----------------------------|----------------------------| 
G--7-----7h-8--7-------------|-----6-----6-----6-----6----| 
D-----0-----------0--0--0----|--0-----0-----0-----0-------| 

                                                           
D----------------------------|----------------------------| 
A----------------------------|----------------------------| 
F----------------------------|----------------------------| 
C----------------------------|-----------------7----------| 
G--7-----7h-8--7-------------|--10-------7-----------6----| 
D-----0-----------0--0--0----|-----6--0-----5-----8-------| 

                                                           
D----------------------------|----------------------------| 
A----------------------------|----------------------------| 
F----------------------------|----------------------------| 
C----------------------------|----------------------------| 
G--7-----7h-8--7-------------|-----5-----5-----5-----5----| 
D-----0-----------0--0--0----|--0-----0-----0-----0-------| 

                                                           
D----------------------------|----------------------------| 
A----------------------------|----------------------------| 
F----------------------------|-----3-----------4--3--2----| 
C--2-----2--3--2-------------|--------2--5----------------| 
G-----4-----------4--4--4----|--3-----------2-------------| 
D----------------------------|----------------------------| 

                                                           
D----------------------------|----------------------------| 
A----------------------------|----------------------------| 
F----------------------------|----------------------------| 
C----------------------------|----------------------------| 
G--7-----7h-8--7-------------|-----6-----6-----6-----6----| 
D-----0-----------0--0--0----|--0-----0-----0-----0-------| 

                                                           
D----------------------------|----------------------------| 
A----------------------------|----------------------------| 
F----------------------------|----------------------------| 
C----------------------------|-----------------7----------| 
G--7-----7h-8--7-------------|--10-------7-----------6----| 
D-----0-----------0--0--0----|-----6--0-----5-----8-------| 

                                                           
D----------------------------|----------------------------| 
A----------------------------|----------------------------| 
F----------------------------|----------------------------| 
C----------------------------|----------------------------| 
G--7-----7h-8--7-------------|-----5-----5-----5-----5----| 
D-----0-----------0--0--0----|--0-----0-----0-----0-------| 

                                                           
D----------------------------|----------------------------| 
A----------------------------|----------------------------| 
F----------------------------|----------------------------| 
C--2--------4--------5-------|--4--------5--------7-------| 
G--0--------2--------3-------|--2--------3--------5-------| 
D----------------------------|----------------------------| 

                                                           
D----------------------------|----------------------------| 
A----------------------------|----------------------------| 
F----------------------------|----------------------------| 
C----------------------------|----------------------------| 
G--0--0--0--2--2--2--3--3----|--2--2--2--3--3--3--6--6----| 
D----------------------------|----------------------------| 

                                                           
D----------------------------|----------------------------| 
A----------------------------|-----------------12s10------| 
F----------------------------|--------------9--------7----| 
C----------------------------|----------------------------| 
G--2--2--2--2----------------|----------------------------| 
D--0--0--0--0----------------|----------------------------| 

                                                           
D----------------------------|----------------------------| 
A----------------------------|----------------------------| 
F----------------------------|--------------4-------------| 
C----------------------------|--------------4-------------| 
G--x--2--2--2--2-------------|--------------2-------------| 
D--x--0--0--0--0-------------|----------------------------| 

                                                           
D----------------------------|----------------------------| 
A----------------------------|-----------------12s10------| 
F----------------------------|--------------9--------7----| 
C----------------------------|----------------------------| 
G--2--2--2--2----------------|----------------------------| 
D--0--0--0--0----------------|----------------------------| 

                                                           
D----------------------------|----------------------------| 
A----------------------------|-----------8-----------11---| 
F--------9s-11-7-----7--11---|-----5--7-----8-----8-------| 
C-----9-----------9----------|--5--------------8----------| 
G--7-------------------------|----------------------------| 
D----------------------------|----------------------------| 

                                                      
D----------------------------------------------------| 
A----------------------------------------------------| 
F----------------------------------------------------| 
C----------------------------------------------------| 
G--------------8h-7--------10----------------10------| 
D--0-----0-----------0-----0-----0-----0-------------| 

                                                           
D----------------------------|----------------------------| 
A----------------------------|----------------------------| 
F----------------------------|----------------------------| 
C-----------------9--7-------|----------------------------| 
G--------5s-8--7--------5----|--------8-----10-------10---| 
D--0--0----------------------|--0--0--0--0--0--0--0-------| 

                              
D----------------------------| 
A----------------------------| 
F----------------------------| 
C----------------------------| 
G--------5s-10----9s-12------| 
D--0--0--------7--------10---| 

                                                      
D----------------------------------------------------| 
A----------------------------------------------------| 
F----------------------------------------------------| 
C----------------------------------------------------| 
G--------------8h-7--------10----------------10------| 
D--0-----0-----------0-----0-----0-----0-------------| 

                                                           
D----------------------------|----------------------------| 
A----------------------------|----------------------------| 
F----------------------------|----------------------------| 
C-----------------9s-7-------|--2--2--2--4--4--4--4--4----| 
G--------5s-8--7--------5----|--0--0--0--2--2--2--2--2----| 
D--0--0----------------------|----------------------------| 

                              
D----------------------------| 
A----------------------------| 
F----------------------------| 
C--5--5--5--7--7--7--7--7----| 
G--3--3--3--5--5--5--5--5----| 
D----------------------------| 

                                                      
D----------------------------------------------------| 
A----------------------------------------------------| 
F----------------------------------------------------| 
C----------------------------------------------------| 
G--------------8h-7--------10----------------10------| 
D--0-----0-----------0-----0-----0-----0-------------| 

                              
D----------------------------| 
A----------------------------| 
F----------------------------| 
C-----------------9--7-------| 
G--------5s-8--7--------5----| 
D--0--0----------------------| 

                                                      
D----------------------------------------------------| 
A----------------------------------------------------| 
F----------------------------------------------------| 
C----------------------------------------------------| 
G--------------8h-7--------10----------------10------| 
D--0-----0-----------0-----0-----0-----0-------------| 

                                                           
D----------------------------|----------------------------| 
A----------------------------|----------------------------| 
F----------------------------|----------------------------| 
C----------------------------|----------------------------| 
G--------5s-10----9s-12------|--------8-----10-------10---| 
D--0--0--------7--------10---|--0--0--0--0--0--0--0-------| 

                                                           
D----------------------------|----------------------------| 
A----------------------------|----------------------------| 
F----------------------------|----------------------------| 
C-----------------9s-7-------|--2--2--2--4--4--4--4--4----| 
G--------5s-8--7--------5----|--0--0--0--2--2--2--2--2----| 
D--0--0----------------------|----------------------------| 

                                                                       
D----------------------------------------|----------------------------| 
A----------------------------------------|----------------------------| 
F----------------------------------------|----------------------------| 
C--5--5--5--8--8--8--8--8--8--8--8--8----|----------------------------| 
G--3--3--3--6--6--6--6--6--6--6--6--6----|--6--6-----6-----6-----6----| 
D----------------------------------------|--6--6-----6-----6----------| 

                                                           
D----------------------------|----------------------------| 
A----------------------------|----------------------------| 
F----------------------------|----------------------------| 
C----------------------------|----------------------------| 
G----------------------------|----------------------------| 
D--0-----0--0-----0-----0----|--0--0--0-----0-----0--0----| 

                                                           
D----------------------------|----------------------------| 
A----------------------------|----------------------------| 
F----------------------------|----------------------------| 
C----------------------------|----------------------------| 
G----------------------------|----------------------------| 
D--0-----0--0-----0-----0----|--0--0--0-----0-----0--0----| 

                                                           
D----------------------------|----------------------------| 
A----------------------------|----------------------------| 
F----------------------------|----------------------------| 
C----------------------------|----------------------------| 
G----------------------------|----------------------------| 
D--0-----0--0-----0-----0----|--0--0--0-----0-----0--0----| 

                                                           
D----------------------------|----------------------------| 
A----------------------------|----------------------------| 
F----------------------------|----------------------------| 
C----------------------------|----------------------------| 
G----------------------------|----------------------------| 
D--0-----0--0-----0-----0----|--0--0--0-----0-----3--3----| 

                                                           
D----------------------------|----------------------------| 
A----------------------------|----------------------------| 
F----------------------------|----------------------------| 
C----------------------------|----------------------------| 
G--4-----4--4-----4-----4----|--4--4--4-----4-----4--4----| 
D--2-----2--2-----2-----2----|--2--2--2-----2-----2--2----| 

                                                           
D----------------------------|----------------------------| 
A----------------------------|----------------------------| 
F----------------------------|----------------------------| 
C----------------------------|----------------------------| 
G--4-----4--4-----4-----4----|--4--4--4-----4-----4--4----| 
D--2-----2--2-----2-----2----|--2--2--2-----2-----2--2----| 

                                                           
D----------------------------|----------------------------| 
A----------------------------|----------------------------| 
F----------------------------|----------------------------| 
C----------------------------|----------------------------| 
G--4-----4--4-----4-----4----|--4--4--4-----4-----4--4----| 
D--2-----2--2-----2-----2----|--2--2--2-----2-----2--2----| 

                                                                            
D----------------------------|----------------------------|----------------| 
A----------------------------|----------------------------|----------------| 
F----------------------------|----------------------------|--7--6-----9----| 
C-----------6-----6-----6----|--------------9--9--9--9----|--7--7--9--9----| 
G--4-----4--4-----4-----4----|--7--7--7-----7--7--7--7----|--5--5--7--7----| 
D--2-----2-------------------|--5--5--5-------------------|----------------| 

                                                                
D----------------|----------------|----------------------------| 
A----------------|----------------|----------------------------| 
F--9-----9-------|----------------|----------------------------| 
C--9-----9-------|--4-------------|----------------------------| 
G--7-----7-------|--4--4-----4----|--4-----------4--4-----4----| 
D-----------0----|--2-----0--2----|--2-----0-----2--2--2-------| 

                                                           
D----------------------------|----------------------------| 
A----------------------------|----------------------------| 
F--7-----6--6--------9-------|--9-----9--9--9--9----------| 
C--7-----7--7--------9-------|--9-----9--9--9--9----------| 
G--5-----5--5--5--5--7-------|--7-----7--7--7--7--9--9----| 
D----------------------------|----------------------------| 

                                                           
D----------------------------|----------------------------| 
A----------------------------|----------------------------| 
F--11-11-11-11-11-11-11-11---|--11-11-------9--9--9--9----| 
C--11-11-11-11-11-11-11-11---|--11-11-11-11-9--9--9--9----| 
G--9--9--9--9--9--9--9--9----|--9--9--------7--7--7--7----| 
D----------------------------|----------------------------| 

                                                                            
D----------------------------|----------------------------|----------------| 
A----------------------------|----------------------------|----------------| 
F--------6--6----------------|--------9--9----------------|----------------| 
C--------------9-------------|--------------9--9--5--5----|--4-------------| 
G--5-----------------7-------|--7-------------------------|--4--4----------| 
D----------------------------|----------------------------|--2--2--0--2----| 

                                                           
D----------------------------|----------------------------| 
A----------------------------|----------------------------| 
F----------------------------|--------6--6----------------| 
C--------------7--7--x--x----|--------------9-------------| 
G--------------5--5--x--x----|--5-----------------7-------| 
D--2~----x--x----------------|----------------------------| 

                                                           
D----------------------------|----------------------------| 
A----------------------------|----------------------------| 
F--------9--9----------------|----------------------------| 
C--------------9--9--5--5----|-----------11----------9----| 
G--7-------------------------|--7s-9--9-----9s-7--7-------| 
D----------------------------|----------------------------| 

                                                               
D----------------------------|----------|----------|----------| 
A----------------------------|----------|----------|----------| 
F----------------------------|----------|----------|----------| 
C-----------11----------9----|----------|----------|----------| 
G--7s-9--9-----9s-7--7-------|----------|----------|----------| 
D----------------------------|----------|----------|----------| 

                                                           
D----------------------------|----------------------------| 
A----------------------------|----------------------------| 
F----------------------------|----------------------------| 
C--------------11-------9----|----------------------------| 
G-----------------9--12------|--------7-----6--------6----| 
D----------------------------|--0--0--0--0--0--0--0--0----| 

                                                           
D----------------------------|----------------------------| 
A----------------------------|----------------------------| 
F----------------------------|----------------------------| 
C----------------------------|--------1-----2--------1----| 
G--------3--3--2--2--1--1----|--------1-----2--------1----| 
D--0--0--4--4--4--4--3--3----|--0--0-----0-----0--0-------| 

                                                           
D----------------------------|----------------------------| 
A----------------------------|----------------------------| 
F----------------------------|----------------------------| 
C--------------5--5--4--4----|----------------------------| 
G--------3--3--3--3--2--2----|--------6-----7--------1----| 
D--0--0--5--5----------------|--0--0--0--0--0--0--0--0----| 

                                                           
D----------------------------|----------------------------| 
A----------------------------|----------------------------| 
F----------------------------|----------------------------| 
C--------------2--2--1--1----|--9-----9--8-----8--7-------| 
G--------3--3--3--3--3--3----|-----7--------6--------5----| 
D--0--0--0--0----------------|----------------------------| 

                              
D----------------------------| 
A----------------------------| 
F----------------------------| 
C--7--6-----6--5-----4--3----| 
G--------4--------3----------| 
D----------------------------| 

                                                      
D----------------------------------------------------| 
A----------------------------------------------------| 
F----------------------------------------------------| 
C----------------------------------------------------| 
G--------------3h-2--------5-----------------3-------| 
D--0-----0-----0-----0-----------0-----0-----0-------| 

                                                           
D----------------------------|----------------------------| 
A----------------------------|----------------------------| 
F----------------------------|----------------------------| 
C-----------------9s-7-------|----------------------------| 
G--------5--8--7--------5----|--------8-----10-------10---| 
D--0--0----------------------|--0--0--0--0--0--0--0-------| 

                              
D----------------------------| 
A----------------------------| 
F----------------------------| 
C-----------7-----4s-7-------| 
G--------5-----2--------5----| 
D--0--0----------------------| 

                                                      
D----------------------------------------------------| 
A----------------------------------------------------| 
F----------------------------------------------------| 
C----------------------------------------------------| 
G--------------3h-2--------5-----------------3-------| 
D--0-----0-----0-----0-----------0-----0-----0-------| 

                                                           
D----------------------------|----------------------------| 
A----------------------------|----------------------------| 
F----------------------------|----------------------------| 
C-----------------9s-7-------|--2--2--2--4--4--4--4--4----| 
G--------5--8--7--------5----|--0--0--0--2--2--2--2--2----| 
D--0--0----------------------|----------------------------| 

                              
D----------------------------| 
A----------------------------| 
F----------------------------| 
C--5--5--5--7--7--7--7--7----| 
G--3--3--3--5--5--5--5--5----| 
D----------------------------| 

                                                      
D----------------------------------------------------| 
A----------------------------------------------------| 
F----------------------------------------------------| 
C----------------------------------------------------| 
G--------------8h-7--------10----------------10------| 
D--0-----0-----------0-----0-----0-----0-------------| 

                              
D----------------------------| 
A----------------------------| 
F----------------------------| 
C-----------------9s-7-------| 
G--------5--8--7--------5----| 
D--0--0----------------------| 

                                                      
D----------------------------------------------------| 
A----------------------------------------------------| 
F----------------------------------------------------| 
C----------------------------------------------------| 
G--------------8h-7--------10----------------10------| 
D--0-----0-----------0-----0-----0-----0-------------| 

                              
D----------------------------| 
A----------------------------| 
F----------------------------| 
C----------------------------| 
G--------5s-10----9s-12------| 
D--0--0--------7--------10---| 

                                                      
D----------------------------------------------------| 
A----------------------------------------------------| 
F----------------------------------------------------| 
C----------------------------------------------------| 
G--------------8h-7--------10----------------10------| 
D--0-----0-----------0-----0-----0-----0-------------| 

                                                           
D----------------------------|----------------------------| 
A----------------------------|----------------------------| 
F----------------------------|----------------------------| 
C-----------------9s-7-------|--2--2--2--4--4--4--4--4----| 
G--------5--8--7--------5----|--0--0--0--2--2--2--2--2----| 
D--0--0----------------------|----------------------------| 

                                                           
D----------------------------|----------------------------| 
A----------------------------|----------------------------| 
F----------------------------|----------------------------| 
C--5--5--5--8--8--8--8--8----|--8--8--8--8--8--8--8--8----| 
G--3--3--3--6--6--6--6--6----|--6--6--6--6--6--6--6--6----| 
D----------------------------|----------------------------| 

                                                           
D----------------------------|----------------------------| 
A----------------------------|----------------------------| 
F----------------------------|----------------------------| 
C----------------------------|----------------------------| 
G--7-----7h-8--7-------------|-----6-----6-----6-----6----| 
D-----0-----------0--0--0----|--0-----0-----0-----0-------| 

                                                           
D----------------------------|----------------------------| 
A----------------------------|----------------------------| 
F----------------------------|----------------------------| 
C----------------------------|-----------------7----------| 
G--7-----7h-8--7-------------|--10-------7-----------6----| 
D-----0-----------0--0--0----|-----6--0-----5-----8-------| 

                                                           
D----------------------------|----------------------------| 
A----------------------------|----------------------------| 
F----------------------------|----------------------------| 
C----------------------------|----------------------------| 
G--7-----7h-8--7-------------|-----5-----5-----5-----5----| 
D-----0-----------0--0--0----|--0-----0-----0-----0-------| 

                                                           
D----------------------------|----------------------------| 
A----------------------------|----------------------------| 
F----------------------------|-----3-----------4--3--2----| 
C--2-----2--3--2-------------|--------2--5----------------| 
G-----4-----------4--4--4----|--3-----------2-------------| 
D----------------------------|----------------------------| 

                                                           
D----------------------------|----------------------------| 
A----------------------------|----------------------------| 
F----------------------------|----------------------------| 
C----------------------------|----------------------------| 
G--7-----7h-8--7-------------|-----6-----6-----6-----6----| 
D-----0-----------0--0--0----|--0-----0-----0-----0-------| 

                                                           
D----------------------------|----------------------------| 
A----------------------------|----------------------------| 
F----------------------------|----------------------------| 
C----------------------------|-----------------7----------| 
G--7-----7h-8--7-------------|--10-------7-----------6----| 
D-----0-----------0--0--0----|-----6--0-----5-----8-------| 

                                                           
D----------------------------|----------------------------| 
A----------------------------|----------------------------| 
F----------------------------|----------------------------| 
C----------------------------|----------------------------| 
G--7-----7h-8--7-------------|-----5-----5-----5-----5----| 
D-----0-----------0--0--0----|--0-----0-----0-----0-------| 

                                                           
D----------------------------|----------------------------| 
A----------------------------|----------------------------| 
F--2-------------------------|----------------------------| 
C--2--------4--------5-------|--4--------5--------7-------| 
G--0--------2--------3-------|--2--------3--------5-------| 
D----------------------------|----------------------------| 

                                                           
D----------------------------|----------------------------| 
A----------------------------|----------------------------| 
F----------------------------|----------------------------| 
C----------------------------|----------------------------| 
G--0--0--0--2--2--2--3--3----|--2--2--2--3--3--3--5--5----| 
D----------------------------|----------------------------| 

                                                           
D----------------------------|----------------------------| 
A----------------------------|--------------------5s-7----| 
F----------------------------|----------------------------| 
C-----------5h-4h-5----------|--5h-4h-5-----7-------------| 
G--3--3--3-----------3--3----|-----------3-----5----------| 
D----------------------------|----------------------------| 

                                                           
D----------------------------|----------------------------| 
A----------------------------|--3h-2h-3-----2-------------| 
F----------------------------|-----------2-----------6----| 
C-----------5h-4h-5----------|-----------------4s-7-------| 
G--3--3--3-----------2--2----|----------------------------| 
D----------------------------|----------------------------| 

                                                           
D----------------------------|----------------------------| 
A----------------------------|----------------------------| 
F-----------7h-6h-7----------|--7h-6h-7-----9-----11s12---| 
C--5--5--5-----------5--5----|-----------5-----7----------| 
G----------------------------|----------------------------| 
D----------------------------|----------------------------| 

                                                           
D----------------------------|----------------------------| 
A----------------------------|----------------------------| 
F-----------11h9h-11---------|--------7-----6-------------| 
C--9--9--9-----------9--9----|--9--9--------------7-------| 
G----------------------------|----------------------------| 
D----------------------------|----------------------------| 

                                                           
D----------------------------|--------------------12-14---| 
A----------------------------|----------------------------| 
F-----------12h11h12---------|--12h11h12----14------------| 
C--10-10-10----------10-10---|-----------10----12---------| 
G----------------------------|----------------------------| 
D----------------------------|----------------------------| 

SOLO: 
                                  
D|----------------------------|----------------------------| 
A|----------------------------|--15h14h15----14----10-14---| 
F|-----------12-11-12---------|-----------11----11---------| 
C|--10-10-10----------9--9----|----------------------------| 
G|----------------------------|----------------------------| 
D|----------------------------|----------------------------| 

                                                           
D----------------------------|--------------------14-15---| 
A-----------15-14-15---------|--15-14-15----17------------| 
F--12-12-12----------12-12---|-----------12----14---------| 
C----------------------------|----------------------------| 
G----------------------------|----------------------------| 
D----------------------------|----------------------------| 

                                                           
D-----------14-12-14---------|----------------------------| 
A--12-12-12----------12-12---|--12-12~------10~------8----| 
F----------------------------|----------------------------| 
C----------------------------|----------------------------| 
G----------------------------|----------------------------| 
D----------------------------|----------------------------| 

                                          
D----------------------------------------| 
A--8~-------7~-------8--7--8--10-8--7----| 
F----------------------------------------| 
C----------------------------------------| 
G----------------------------------------| 
D----------------------------------------| 

                    w                      w  w      
D----------------------------------------|-----18---| 
A--17-17-17-17-17-17-21------------------|--20------| 
F----------------------------------------|----------| 
C----------------------------------------|----------| 
G----------------------------------------|----------| 
D----------------------------------------|----------| 

                                          
D--19h15---------------------------------| 
A--------17------------------------------| 
F-----------16~---------------18-19-21---| 
C--------------------17-19-21------------| 
G----------------------------------------| 
D----------------------------------------| 

                                                                              
D--------------------19-------22-------24b-----------------------------------| 
A--19----20----22------------------------------------------------------------| 
F----------------------------------------------------------------------------| 
C----------------------------------------------------------------------------| 
G----------------------------------------------------------------------------| 
D----------------------------------------------------------------------------| 

                                          
D--24-22-19-0--------19-17-15------------| 
A-----------------------------19-17-15---| 
F----------------------------------------| 
C----------------------------------------| 
G----------------------------------------| 
D----------------------------------------| 

                                          
D--------15-18-17-15-17-19-17-15---------| 
A-----17-------------------------17------| 
F--18-------------------------------18---| 
C----------------------------------------| 
G----------------------------------------| 
D----------------------------------------| 

                                                                              
D----------------------------------------------------------------------------| 
A--------------------------------------------------------17----17----17------| 
F--13~-----------------------------------------------------------------------| 
C-----------------------------16-------14----14----14------------------------| 
G----------------------------------------------------------------------------| 
D----------------------------------------------------------------------------| 

                    w                                                       
D-----------16-16-16-13------------------|----------------|----------------| 
A--12-12-12-12-12-12-12------------------|--12-12---------|--12-12---------| 
F----------------------------------------|----------------|----------------| 
C----------------------------------------|----------------|----------------| 
G----------------------------------------|----------------|----------------| 
D----------------------------------------|----------------|----------------| 

                      w                                              
D----------------|----------------|----------------|----------------| 
A--12-12---------|--12-12---------|--12-12---------|--12-12---------| 
F----------------|----------------|----------------|----------------| 
C----------------|----------------|----------------|----------------| 
G----------------|----------------|----------------|----------------| 
D----------------|----------------|----------------|----------------| 

                                                                     w      
D----------------|----------------------------|----------------------------| 
A--12-12---------|--12----------12----x--15---|--15b---------15b---12-16---| 
F----------------|----------------------------|----------------------------| 
C----------------|----------------------------|----------------------------| 
G----------------|----------------------------|----------------------------| 
D----------------|----------------------------|----------------------------| 

  w                           
D--------------------12-14---| 
A--16----------16-12---------| 
F----------------------------| 
C----------------------------| 
G----------------------------| 
D----------------------------| 

                                                      
D--15----14h15h14-12---------------------------------| 
A--------------------15----13----12----11s12-12------| 
F----------------------------------------------------| 
C----------------------------------------------------| 
G----------------------------------------------------| 
D----------------------------------------------------| 

                       W                            W      
D----------------------------|----------------------------| 
A--15-12-13-12---------------|--------15------------------| 
F--------------15-14-13-12---|--12b---------12-14-16-11---| 
C----------------------------|-----14----14---------------| 
G----------------------------|----------------------------| 
D----------------------------|----------------------------| 

  W                           
D----------------------------| 
A--------12------------------| 
F--11----------11-12-14-14s--| 
C-----12----12---------------| 
G----------------------------| 
D----------------------------| 

                                                      
D--------------------------------10-12-14-10-12-14s--| 
A--------------10-12-13-10-12-13---------------------| 
F--12-9--11-12---------------------------------------| 
C----------------------------------------------------| 
G----------------------------------------------------| 
D----------------------------------------------------| 

                                                      
D--15-12-14-15s17-14-15-17-17b---17----------15------| 
A----------------------------------------------------| 
F----------------------------------------------------| 
C----------------------------------------------------| 
G----------------------------------------------------| 
D----------------------------------------------------| 

  w                                                   
D--15----------15----15h14h12------------------------| 
A-----------------------------15h13h12---------------| 
F--------------------------------------14h12-11------| 
C----------------------------------------------------| 
G----------------------------------------------------| 
D----------------------------------------------------| 

                                                           
D-----------17----17-17b18b--|--17b---15------------------| 
A-----16-------16------------|-----------17-17b18b17b-----| 
F--11----14------------------|----------------------------| 
C----------------------------|----------------------------| 
G----------------------------|----------------------------| 
D----------------------------|----------------------------| 

                              
D----------------------------| 
A--15----17------------------| 
F-----16----16s14-12---------| 
C--------------------14-12---| 
G----------------------------| 
D----------------------------| 

                                                      
D--------------12h15h12----------12h15h20h15h12------| 
A-----------13----------13----13----------------13---| 
F--------12----------------12------------------------| 
C-----14---------------------------------------------| 
G--15------------------------------------------------| 
D----------------------------------------------------| 

                                                      
D--19h14h11----------------------11h14h19h14h11------| 
A-----------12----------------12---------------------| 
F--------------11----------11------------------------| 
C-----------------13----13---------------------------| 
G--------------------14------------------------------| 
D----------------------------------------------------| 

                              
D--15----15-17-17b20b17b-----| 
A-----17---------------------| 
F----------------------------| 
C----------------------------| 
G----------------------------| 
D----------------------------| 

                                                      
D----------------------------------------------------| 
A--17s---------17----------15------------------------| 
F--------14s16-16g---16----------14----14b---12------| 
C----------------------------------------------------| 
G----------------------------------------------------| 
D----------------------------------------------------| 

                              
D--------------------15------| 
A--------------16-------16---| 
F--12~---15-------15---------| 
C-----13----13---------------| 
G----------------------------| 
D----------------------------| 

                                                       w                       
D--18----18----18-17-15------------------------------|-------|----------------| 
A-----------------------18-16-15---------------------|-------|----------------| 
F--------------------------------17-15-13------------|-------|----------------| 
C-----------------------------------------17-15-13---|--14---|----------------| 
G----------------------------------------------------|-------|----------------| 
D----------------------------------------------------|-------|----------------| 

                                                                            
D----------------|----------------|----------------|--5----|-------|-------| 
A----------------|----------------|----------------|-------|--5----|-------| 
F----------------|----------------|----------------|-------|-------|--5----| 
C----------------|----------------|----------------|-------|-------|-------| 
G----------------|----------------|----------------|-------|-------|-------| 
D----------------|----------------|----------------|-------|-------|-------| 

          w                                                   
D-------|-------|--12---|--12----------------15s14---|-------| 
A--7----|--7----|-------|----------------------------|--11---| 
F-------|-------|-------|----------------------------|-------| 
C-------|-------|-------|----------------------------|-------| 
G-------|-------|-------|----------------------------|-------| 
D-------|-------|-------|----------------------------|-------| 

                                                w 
D----------------------------|----------------|----------|----------------------| 
A--11~-----------------------|----------------|----------|----------------------| 
F--------------------12s15s--|--12-11----11---|--11------|----------------------| 
C----------------------------|----------------|----------|----------------------| 
G----------------------------|----------------|----------|----------------------| 
D----------------------------|----------------|----------|----------------------| 


D--------------14-14---------|----------------|----------------------------| 
A--------------------14-14---|--12-14-14b14---|--14s---10s---12-10-12------| 
F----------------------------|----------------|----------------------------| 
C--------11-11---------------|----------------|----------------------------| 
G----------------------------|----------------|----------------------------| 
D----------------------------|----------------|----------------------------| 


D----------------------------|--------------14-14---------|----------------| 
A--12-12b--------------------|--------------------14-14---|--12-14-14b14---| 
F--------------14----11------|--11~-----------------------|----------------| 
C--------11------------------|--------11-11---------------|----------------| 
G----------------------------|----------------------------|----------------| 
D----------------------------|----------------------------|----------------| 


D--------------------14-16---|--17------------------------| 
A--14----------14~14---------|--------14-19-17-14---------| 
F----------------------------|-----14---------------------| 
C----------------------------|--------------------14-12---| 
G----------------------------|----------------------------| 
D----------------------------|----------------------------| 


D--------------14-14---------|----------------|----------------------------| 
A--------------------14-14---|--12-14-14b14---|--14s---10s---12-10-12------| 
F----------------------------|----------------|----------------------------| 
C--12-12-11-11---------------|----------------|----------------------------| 
G----------------------------|----------------|----------------------------| 
D----------------------------|----------------|----------------------------| 


D----------------------------|--------------14-14---------|----------------| 
A--12-12b--------------------|--------------------14-14---|--12-14-14-14b--| 
F--------------14----11------|--11~-----------------------|----------------| 
C--------11------------------|--------11-11---------------|----------------| 
G----------------------------|----------------------------|----------------| 
D----------------------------|----------------------------|----------------| 


D----------------------------|----------------------------| 
A-----------14----------12---|-----------10----------9----| 
F--9--11-11----11-9--9-------|--9--11-11----11-9--9-------| 
C----------------------------|----------------------------| 
G----------------------------|----------------------------| 
D----------------------------|----------------------------| 


D--------------14-14---------|----------------|----------------------------| 
A--------------------14-14---|--12-14-14-14---|--14s---10s---12-10-12------| 
F----------------------------|----------------|----------------------------| 
C--12----11-11---------------|----------------|----------------------------| 
G----------------------------|----------------|----------------------------| 
D----------------------------|----------------|----------------------------| 


D----------------------------|--------------14-14---------|----------------| 
A--12-12b--------------------|--------------------14-14---|--12-14-14-14---| 
F--------------14----11------|--11~-----------------------|----------------| 
C--------11------------------|--------11-11---------------|----------------| 
G----------------------------|----------------------------|----------------| 
D----------------------------|----------------------------|----------------| 


D--------------------14-16---|--17------------------------| 
A--14s---14s---14------------|--------14-19-17-14---------| 
F----------------------------|-----14---------------------| 
C----------------------------|--------------------16-14---| 
G----------------------------|----------------------------| 
D----------------------------|----------------------------| 


D--------------14-14---------|----------------|----------------------------| 
A--------------------14-14---|--12-14-14-14---|--14s---10s---12-10-12------| 
F----------------------------|----------------|----------------------------| 
C--12-12-11-11---------------|----------------|----------------------------| 
G----------------------------|----------------|----------------------------| 
D----------------------------|----------------|----------------------------| 


D----------------------------|--------------14-14---------|----------------| 
A--12-12b--------------------|--------------------14-14---|--12-14-14-14b--| 
F--------------14----11------|--11~-----------------------|----------------| 
C--------11------------------|--------11-11---------------|----------------| 
G----------------------------|----------------------------|----------------| 
D----------------------------|----------------------------|----------------| 


D----------------------------|----------------------------|| 
A-----------14----------12---|-----------10----------9----|| 
F--9--11-11----11-9--9-------|--9--11-11----11-9--9-------|| 
C----------------------------|----------------------------|| 
G----------------------------|----------------------------|| 
D----------------------------|----------------------------|| 

Rhythm for solo: 
                                                           
D----------------------------|----------------------------| 
A----------------------------|----------------------------| 
F-----------12h11h12---------|----------------------------| 
C--10-10-10------------------|--------------4-------------| 
G--------------------2--2----|--5--4--5--5-----------4----| 
D----------------------------|-----------------2--5-------| 

                                                           
D----------------------------|----------------------------| 
A----------------------------|----------------------------| 
F----------------------------|--------------6-----7--9----| 
C--5--5--5--9--7--9--5--5----|--9--7--9--5-----7----------| 
G----------------------------|----------------------------| 
D----------------------------|----------------------------| 

                                                           
D----------------------------|----------------------------| 
A----------------------------|----------------------------| 
F----------------------------|----------------------------| 
C--9--9--9--12-11-12-9--9----|--9--9~-------7~-------5----| 
G----------------------------|----------------------------| 
D----------------------------|----------------------------| 

                                          
D----------------------------------------| 
A----------------------------------------| 
F----------------------------------------| 
C--5~-------4~-------5--4--5--7--5--4----| 
G----------------------------------------| 
D----------------------------------------| 

                                                  
D----------------------------------------|-------| 
A----------------------------------------|-------| 
F----------------------------------------|-------| 
C----------------------------------------|-------| 
G----------------------------------------|-------| 
D--0--0--0--0----------------------------|-------| 

                                          
D----------------------------------------| 
A----------------------------------------| 
F----------------------------------------| 
C----------------------------------------| 
G----------------------------------------| 
D--0--0--0--0-----------------3--5--7----| 

                                      W                                       
D----------------------------------------------------------------------------| 
A----------------------------------------------------------------------------| 
F----------------------------------------------------------------------------| 
C----------------------------------------------------------------------------| 
G--------------------------------------3-------------------------------------| 
D--0-----0-----0-----0--------0----------------------------------------------| 

                                                  
D----------------------------------------|-------| 
A----------------------------------------|-------| 
F----------------------------------------|-------| 
C----------------------------------------|-------| 
G----------------------------------------|-------| 
D--0--0--0--0----------------------------|-------| 

                                          
D----------------------------------------| 
A----------------------------------------| 
F----------------------------------------| 
C----------------------------------------| 
G----------------------------------------| 
D--0--0--0--0-----------------5--7--9----| 

                                          
D----------------------------------------| 
A----------------------------------------| 
F--------------------7-------------------| 
C----------------------------------------| 
G--------------------5-------------------| 
D--0-----0--0----------------------------| 

                                                  
D----------------------------------------|-------| 
A----------------------------------------|-------| 
F----------------------------------------|-------| 
C----------------------------------------|-------| 
G----------------------------------------|-------| 
D--0--0--0--0----------------------------|-------| 

                                          
D----------------------------------------| 
A----------------------------------------| 
F----------------------------------------| 
C----------------------------------------| 
G----------------------------------------| 
D--0--0--0--0-----------------3--5--7----| 

                    W 
D----------------------------------------| 
A----------------------------------------| 
F----------------------------------------| 
C----------------------------------------| 
G--------------------3-------------------| 
D--0--0--0--0----------------------------| 


D----------------------------------------|-------|----------------------------| 
A----------------------------------------|-------|----------------------------| 
F----------------------------------------|-------|----------------------------| 
C----------------------------------------|-------|--7-------------------------| 
G----------------------------------------|-------|--5-----5--5--5--5--5--5----| 
D--0--0--0--0----------------------------|-------|----------------------------| 


D----------------------------|----------------------------|-------|-------| 
A----------------------------|----------------------------|-------|-------| 
F----------------------------|----------------------------|-------|-------| 
C-----------------------5----|--5-----------5--------4----|--4----|--2----| 
G--5--5--5--5--5--5--7--3----|--3-----------3--------2----|--2----|--2----| 
D----------------------------|----------------------------|-------|--0----| 


D----------------------------|-------|-------|----------------------------| 
A----------------------------|-------|-------|----------------------------| 
F----------------------------|-------|-------|----------------------------| 
C-----------------------5----|--5----|--4----|----------------------------| 
G--4-----------5-----5--3----|--3----|--2----|--7-----7--9--10------------| 
D--2-----------3-----3-------|-------|-------|-----0-----------0--0--0----| 


D----------------------------------------------------| 
A----------------------------------------------------| 
F----------------------------------------------------| 
C--------------------------------------------5-------| 
G--7-----------7-----9-----10----9-----------3-------| 
D--------0--0----------------------------------------| 


D----------------------------|-------|-------|----------|-------|-------| 
A----------------------------|-------|-------|----------|-------|-------| 
F----------------------------|-------|-------|----------|--5----|--4----| 
C--5-----------5--------4----|--4----|--2----|----------|--5----|--4----| 
G--3-----------3--------2----|--2----|--2----|--4--5----|--3----|--2----| 
D----------------------------|-------|--0----|--2--3----|-------|-------| 


D----------------------------|----------------------------| 
A----------------------------|----------------------------| 
F----------------------------|----------------------------| 
C----------------------------|-----------------------8----| 
G--7-----7--9--10------------|--7-----7--9--10-5-----6----| 
D-----0-----------0--0--0----|-----10---------------------| 


D----------------------------|----------------------------| 
A----------------------------|----------------------------| 
F----------------------------|----------------------------| 
C--8-------------------------|----------------------------| 
G--6--6--6--6--6--6--6--6----|--6--6-----6-----6-----6----| 
D----------------------------|--6--6-----6-----6-----6----| 


D----------------------------|----------------------------| 
A----------------------------|----------------------------| 
F----------------------------|----------------------------| 
C----------------------------|----------------------------| 
G----------------------------|----------------------------| 
D--0-----0--0-----0-----0----|--0--0--0-----0-----0--0----| 


D----------------------------|----------------------------| 
A----------------------------|----------------------------| 
F----------------------------|----------------------------| 
C----------------------------|----------------------------| 
G----------------------------|----------------------------| 
D--0-----0--0-----0-----0----|--0--0--0-----0-----0--0----| 


D----------------------------|----------------------------| 
A----------------------------|----------------------------| 
F----------------------------|----------------------------| 
C----------------------------|----------------------------| 
G----------------------------|----------------------------| 
D--0-----0--0-----0-----0----|--0--0--0-----0-----0--0----| 


D----------------------------|----------------------------| 
A----------------------------|----------------------------| 
F----------------------------|----------------------------| 
C----------------------------|----------------------------| 
G----------------------------|----------------------------| 
D--0-----0--0-----0-----0----|--0--0--0-----0-----3--2----| 


D----------------------------|----------------------------| 
A----------------------------|----------------------------| 
F----------------------------|----------------------------| 
C----------------------------|----------------------------| 
G--4-----4--4-----4-----4----|--4--4--4-----4-----4--4----| 
D--2-----2--2-----2-----2----|--2--2--2-----2-----2--2----| 


D----------------------------|----------------------------| 
A----------------------------|----------------------------| 
F----------------------------|----------------------------| 
C----------------------------|----------------------------| 
G--4-----4--4-----4-----4----|--4--4--4-----4-----5--4----| 
D--2-----2--2-----2-----2----|--2--2--2-----2-----3--2----| 


D----------------------------|----------------------------| 
A----------------------------|----------------------------| 
F----------------------------|----------------------------| 
C----------------------------|----------------------------| 
G--4-----4--4-----4-----4----|--4--4--4-----4-----4--4----| 
D--2-----2--2-----2-----2----|--2--2--2-----2-----2--2----| 


D----------------------------|----------------------------| 
A----------------------------|----------------------------| 
F----------------------------|----------------------------| 
C-----------6-----6-----6----|--------------9--9--9--9----| 
G--4-----4--4-----4-----4----|--7--7--7-----7--7--7--7----| 
D--2-----2-------------------|--5--5--5-------------------| 


D----------------------------------------|----------------------------| 
A----------------------------------------|----------------------------| 
F----------------------------------------|--7-----6--6--------9-------| 
C--------9--9--9--9----------------------|--7-----7--7--9--9--9-------| 
G--------7--7--7--7--7--7--19s-----------|--5-----5--5--------7-------| 
D--------------------------19s-----------|----------------------------| 


D----------------------------|----------------|-------| 
A----------------------------|----------------|-------| 
F--9-----9-----9-------------|----------------|-------| 
C--9-----9-----9-------------|--11-6----------|-------| 
G--7-----7-----7-----7--7----|--9--4-----4----|--4----| 
D----------------------------|--------0--2----|--2----| 


D----------------------------|----------------------------| 
A----------------------------|----------------------------| 
F--7-----6--6--------9-------|--9-----9-----9-------------| 
C--7-----7--7--9--9--9-------|--9-----9-----9-------------| 
G--5-----5--5--------7-------|--7-----7-----7-----7--7----| 
D----------------------------|----------------------------| 


D----------------------------|----------------------------| 
A----------------------------|----------------------------| 
F--11-11-11-11-11-11-11-11---|--11-11-11-11---------------| 
C--11-11-11-11-11-11-11-11---|--11-11-11-11-9--9--9--9----| 
G--9--9--9--9--9--9--9--9----|--9--9--9--9--7--7--7--7----| 
D----------------------------|----------------------------| 


D----------------------------|----------------|----------------| 
A----------------------------|----------------|----------------| 
F--7-----6--6--------9-------|--9--9--9-------|----------------| 
C--7-----7--7--9--9--9-------|--9--9--9-------|--4-------------| 
G--5-----5--5--------7-------|--7--7--7-------|--4--4-----4----| 
D----------------------------|-----------0----|--2--2--0--2----| 


D----------------------------|----------------------------| 
A----------------------------|----------------------------| 
F----------------------------|--7-----6--6--------9-------| 
C----------------------------|--7-----7--7--9--9--9-------| 
G--4-------------------------|--5-----5--5--------7-------| 
D--2-----0-----2--2-----2----|----------------------------| 


D----------------------------|----------------------------| 
A----------------------------|----------------------------| 
F--9-----9-------------------|----------------------------| 
C--9-----9-------------------|-----------11----------9----| 
G--7-----7--7--7--7--7--7----|--7--9--9-----9--7--7-------| 
D----------------------------|----------------------------| 


D----------------------------|----------------------------| 
A----------------------------|----------------------------| 
F----------------------------|--7-----6--6--------9-------| 
C-----------11----------9----|--7-----7--7--7s-9--9-------| 
G--7--9--9-----9--7--7-------|--5-----5--5--------7-------| 
D----------------------------|----------------------------| 


D----------------------------|----------------------------| 
A----------------------------|----------------------------| 
F--9-----9--9----------------|----------------------------| 
C--9-----------9--9--5--5----|----------------------------| 
G--7-------------------------|--9s----4-------------------| 
D----------------------------|--------------0-----0s-2----| 


D----------------------------|----------------------------| 
A----------------------------|----------------------------| 
F----------------------------|----------------------------| 
C----------------------------|--------7--7--9-------------| 
G----------------------------|--5-----------------7-------| 
D--2--0--0--2--2--0--0--2----|----------------------------| 


D----------------------------|----------------------------| 
A----------------------------|----------------------------| 
F--------9--9----------------|----------------------------| 
C--------------9--9--5--5----|--9s-11-11-11-11-11-11-11---| 
G--7~------------------------|--7s-9--9--9--9--9--9--9----| 
D----------------------------|----------------------------| 


D----------------------------|----------------------------| 
A----------------------------|----------------------------| 
F----------------------------|--7-----6--6----------------| 
C--11-11-11-11-9--9--9--9----|--------------7s-9----------| 
G--9--9--9--9--7--7--7--7----|--------------------7-------| 
D----------------------------|----------------------------| 


D----------------------------|----------------------------| 
A----------------------------|----------------------------| 
F--------9--9----------------|----------------------------| 
C--------------9--9--5--5----|--4--4----------------------| 
G--7~------------------------|--------4--4----------------| 
D----------------------------|--------------0--0--2-------| 


D----------------------------|----------------------------| 
A----------------------------|----------------------------| 
F----------------------------|----------------------------| 
C--------------7--7--7--7----|--------7--7--9-------------| 
G--------------5--5--4--4----|--5~----------------7-------| 
D--2~------------------------|----------------------------| 


D----------------------------|----------------------------| 
A----------------------------|----------------------------| 
F--------9--9----------------|----------------------------| 
C--------------9--9--5--5----|-----------11----------9----| 
G--7~------------------------|--7--9--9-----9--7--7-------| 
D----------------------------|----------------------------| 


D----------------------------|----------------------------| 
A----------------------------|----------------------------| 
F----------------------------|--11~---------------11-13---| 
C-----------11----------9----|----------------------------| 
G--7--9--9-----9--7--7-------|----------------------------| 
D----------------------------|----------------------------| 


D----------------------------------------------------------------------------| 
A----------------------------------------------------------------------------| 
F--14----13----11----14----------------13~-----------------------------------| 
C----------------------------------------------------------------------------| 
G----------------------------------------------------------------------------| 
D----------------------------------------------------------------------------| 


D----------------------------------------| 
A----------------------------------------| 
F--------------------11-11-11-11-11-11---| 
C----------------------------------------| 
G--9--9--9--9--9--9----------------------| 
D----------------------------------------| 


D----------------------------------------| 
A----------------------------------------| 
F----------------------------------------| 
C--10-10-10-10-10-10-7--7--7--7--7--7----| 
G----------------------------------------| 
D----------------------------------------| 


D----------------------------------------| 
A----------------------------------------| 
F----------------------------------------| 
C--------------------4--4--4--4--4--4----| 
G----------------------------------------| 
D--2--2--2--2--2--2----------------------| 


D----------------------------------------| 
A----------------------------------------| 
F----------------------------------------| 
C--------------------7--7--7--7--7--7----| 
G--3--3--3--3--3--3----------------------| 
D----------------------------------------| 


D----------------------------------------| 
A----------------------------------------| 
F----------------------------------------| 
C----------------------------------------| 
G----------------------------------------| 
D--2--2--2--2-----------------5--7--8----| 


D----------------------------------------|-------|-------|| 
A----------------------------------------|-------|-------|| 
F----------------------------------------|-------|-------|| 
C-----------------------7--7--7--7--7----|--7----|-------|| 
G-----------------------0--0--0--0--0----|--0----|-------|| 
D--2--2--2--2----------------------------|-------|-------|| 
share this page

See Also: