E-Chords
Children Of Bodom

Northern Comfort(Tabs)

Children Of Bodom

roll up this ad to continue

As recorded by Children of Bodom 
(from the Album Follow the Reaper) 
 
Music by Children of Bodom 
 
 
Tuning:standard 
 
Gtr I (E A D G B E) - 'Lead' 
Gtr II (E A D G B E) - 'Rhythm' 
Gtr III (E A D G B E) - 'Lead2' 
 
  Q=180 
 4/4 
  Gtr I 
  PM---|           PM---|          PM---|           PM---| 
  E  E E  H    E   E  E E H    E   E  E E  H    E   E  E E  H         E 
|----------------|---------------|----------------|----------------------| 
|----------------|---------------|----------------|----------------------| 
|----------------|---------------|----------------|--------12------------| 
|------9-10------|------9-8------|------9-10------|------9---------------| 
|-7-10-----------|-7-10----------|-7-10-----------|-7-10-----------------| 
|----------------|---------------|----------------|----------------------| 
| 
| Gtr II 
|                                                                 PM  PM 
| W                W               W                H         +E  E E E 
|----------------|---------------|----------------|----------------------| 
|----------------|---------------|----------------|----------------------| 
|-9--------------|-9-------------|-9--------------|-9---------(9)--------| 
|-9--------------|-9-------------|-9--------------|-9---------(9)---9----| 
|-7--------------|-7-------------|-7--------------|-7---------(7)---7----| 
|-0--------------|-0-------------|-0--------------|-0---------(0)-0---0--| 
 
 
  PM---|                PM----| 
  E  E E  H        E    E   E E H           E 
|--------------------|------------------------| 
|--------------------|------------------------| 
|--------------------|------------------------| 
|------9-10----------|--------9-8-------------| 
|-7-10---------------|--7--10-----------------| 
|--------------------|------------------------| 
| 
|                                      PM   PM 
| W                     H         +E   E E  E 
|--------------------|------------------------| 
|--------------------|------------------------| 
|-9------------------|--9---------(9)---------| 
|-9------------------|--9---------(9)----9----| 
|-7------------------|--7---------(7)----7----| 
|-0------------------|--0---------(0)--0----0-| 
| 
| Gtr III 
| H         E  E E E   +H          E   E E  E 
|--------------------|------------------------| 
|--------------------|------------------------| 
|--------------------|------------------------| 
|----------------9-8-|-(8)---------------9-10-| 
|-------------10-----|----------------10------| 
|--------------------|------------------------| 
 
 
    PM----|                    PM----| 
    E   E E  H           E     E   E E  H    E 
|--------------------------|-------------------| 
|--------------------------|-------------------| 
|--------------------------|-----------12------| 
|---------9-10-------------|---------9---------| 
|---7--10------------------|---7--10-----------| 
|--------------------------|-------------------| 
| 
|                   PM   PM 
|   H          +E   E E  E     W 
|--------------------------|-------------------| 
|--------------------------|-------------------| 
|---9----------(9)---------|---9---------------| 
|---9----------(9)----9----|---9---------------| 
|---7----------(7)----7----|---7---------------| 
|---0----------(0)--0----0-|---0---------------| 
| 
|  +H           E   E E  E    +Q.       H    E 
|--------------------------|-------------------| 
|--------------------------|-----------11------| 
|-----------------------12-|-(12)--------------| 
|-(10)----------------9----|-------------------| 
|------------------10------|-------------------| 
|--------------------------|-------------------| 
 
 
                                                           PM----------| 
  Q   Q  Q   E E   +Q    Q   Q   Q    Q   Q  Q   E E   +E  E E E E E E E 
|----------------|------------------|----------------|-------------------| 
|----------------|------------------|----------------|-------------------| 
|-9------8-----9-|-(9)------12------|-9------8-----9-|-(9)---------------| 
|-9--10--8--10-9-|-(9)--10--12--12--|-9--10--8--10-9-|-(9)---------------| 
|-7--10--6--10-7-|-(7)--10--10--12--|-7--10--6--10-7-|-(7)-2-3-2-2-2-3-2-| 
|-----8------8---|-------8------10--|-----8------8---|-----0-1-0-3-0-1-0-| 
 
 
  Q   Q  Q   E E   +Q    Q   Q   Q    Q   Q  Q   E E   +E  S E H    E. 
|----------------|------------------|----------------|-----------------| 
|----------------|------------------|----------------|-----------------| 
|-9------8-----9-|-(9)------12------|-9------8-----9-|-(9)---7-5-------| 
|-9--10--8--10-9-|-(9)--10--12--12--|-9--10--8--10-9-|-(9)---7-5-------| 
|-7--10--6--10-7-|-(7)--10--10--12--|-7--10--6--10-7-|-(7)---5-3-------| 
|-----8------8---|-------8------10--|-----8------8---|-----------------| 
 
 
     E E E  E  E  E E  E    E E E  E  E  E E  E 
||-----------------------|----------------------| 
||o----------------------|----------------------| 
||--11-9-9-11-12-11-9-11-|-11-9-9-11-12-11-9-11-| 
||-----------------------|----------------------| 
||o----------------------|----------------------| 
||-----------------------|----------------------| 
| 
|   Gtr II 
|      PM|     PM|     PM     PM|     PM|     PM 
|    E E E  E  E  E E  E    E E E  E  E  E E  E 
||-----------------------|----------------------| 
||o----------------------|----------------------| 
||---7------7-------9----|--7------7-------9----| 
||---7------7-------9----|--7------7-------9----| 
||o--5-5-5--5--7--7-7--7-|--5-5-5--5--7--7-7--7-| 
||-----------------------|----------------------| 
 
 
  1. 
  PM---------------------------------------------------------------------| 
  S S S S S S  S  S S S S S S S  S  S   S S S S S S  S  S S S S S S S  S  S 
|-------------------------------------|--------------------------------------|| 
|-------------------------------------|-------------------------------------o|| 
|-------------------------------------|--------------------------------------|| 
|-7-7-7-7-7-7-12-12-9-9-9-9-9-9-12-12-|-7-7-7-7-7-7-12-12-9-9-9-9-9-9-12-12--|| 
|-------------------------------------|-------------------------------------o|| 
|-------------------------------------|--------------------------------------|| 
| 
| PM---------------------------------------------------------------------| 
| S S S S S S  S  S S S S S S S  S  S   S S S S S S  S  S S S S S S S  S  S 
|-------------------------------------|--------------------------------------|| 
|-------------------------------------|-------------------------------------o|| 
|-------------------------------------|--------------------------------------|| 
|-------------------------------------|--------------------------------------|| 
|-5-5-5-5-5-5--5--5-7-7-7-7-7-7--7--7-|-5-5-5-5-5-5--5--5-7-7-7-7-7-7--7--7-o|| 
|-------------------------------------|--------------------------------------|| 
 
 
  2. 
  PM--------------------------------------------------------------| 
  S S S S S S S S S S S S S S S S   S S S S S S S S S S S S S S S S 
|---------------------------------|---------------------------------| 
|---------------------------------|---------------------------------| 
|-------------7-7-------------7-7-|-------------7-7-------------7-7-| 
|-5-5-5-5-5-5-----7-7-7-7-7-7-----|-5-5-5-5-5-5-----7-7-7-7-7-7-----| 
|---------------------------------|---------------------------------| 
|---------------------------------|---------------------------------| 
| 
| PM--------------------------------------------------------------| 
| S S S S S S S S S S S S S S S S   S S S S S S S S S S S S S S S S 
|---------------------------------|---------------------------------| 
|---------------------------------|---------------------------------| 
|---------------------------------|---------------------------------| 
|---------------------------------|---------------------------------| 
|-3-3-3-3-3-3-3-3-5-5-5-5-5-5-5-5-|-3-3-3-3-3-3-3-3-5-5-5-5-5-5-5-5-| 
|---------------------------------|---------------------------------| 
 
 
   E E E  E  E  E E  E    E E E  E  E  E E  E 
|----------------------|----------------------| 
|----------------------|----------------------| 
|-11-9-9-11-12-11-9-11-|-11-9-9-11-12-11-9-11-| 
|----------------------|----------------------| 
|----------------------|----------------------| 
|----------------------|----------------------| 
| 
|  H         H            H         H 
|----------------------|----------------------| 
|----------------------|----------------------| 
|--7---------9---------|--7---------9---------| 
|--7---------9---------|--7---------9---------| 
|--5---------7---------|--5---------7---------| 
|----------------------|----------------------| 
 
 
  PM---------------------------------------------------------------------| 
  S S S S S S  S  S S S S S S S  S  S   S S S S S S  S  S S S S S S S  S  S 
|-------------------------------------|-------------------------------------| 
|-------------------------------------|-------------------------------------| 
|-------------------------------------|-------------------------------------| 
|-7-7-7-7-7-7-12-12-9-9-9-9-9-9-12-12-|-7-7-7-7-7-7-12-12-9-9-9-9-9-9-12-12-| 
|-------------------------------------|-------------------------------------| 
|-------------------------------------|-------------------------------------| 
| 
| PM---------------------------------------------------------------------| 
| S S S S S S  S  S S S S S S S  S  S   S S S S S S  S  S S S S S S S  S  S 
|-------------------------------------|-------------------------------------| 
|-------------------------------------|-------------------------------------| 
|-------------------------------------|-------------------------------------| 
|-------------------------------------|-------------------------------------| 
|-5-5-5-5-5-5--5--5-7-7-7-7-7-7--7--7-|-5-5-5-5-5-5--5--5-7-7-7-7-7-7--7--7-| 
|-------------------------------------|-------------------------------------| 
 
 
   E E E  E  E  E E  E    E  E  E  E  E  E  E  E 
|----------------------|-------------------------| 
|----------------------|-------------------------| 
|-11-9-9-11-12-11-9-11-|-14-12-11-12-16-14-12-14-| 
|----------------------|-------------------------| 
|----------------------|-------------------------| 
|----------------------|-------------------------| 
| 
|  H         H            H           H 
|----------------------|-------------------------| 
|----------------------|-------------------------| 
|--7---------9---------|--7-----------9----------| 
|--7---------9---------|--7-----------9----------| 
|--5---------7---------|--5-----------7----------| 
|----------------------|-------------------------| 
 
 
  PM--------------------------------------------------------------| 
  S S S S S S S S S S S S S S S S   S S S S S S S S S S S S S S S S 
|---------------------------------|---------------------------------| 
|---------------------------------|---------------------------------| 
|-------------7-7-------------7-7-|-------------7-7-------------7-7-| 
|-5-5-5-5-5-5-----7-7-7-7-7-7-----|-5-5-5-5-5-5-----7-7-7-7-7-7-----| 
|---------------------------------|---------------------------------| 
|---------------------------------|---------------------------------| 
| 
| PM--------------------------------------------------------------| 
| S S S S S S S S S S S S S S S S   S S S S S S S S S S S S S S S S 
|---------------------------------|---------------------------------| 
|---------------------------------|---------------------------------| 
|---------------------------------|---------------------------------| 
|---------------------------------|---------------------------------| 
|-3-3-3-3-3-3-3-3-5-5-5-5-5-5-5-5-|-3-3-3-3-3-3-3-3-5-5-5-5-5-5-5-5-| 
|---------------------------------|---------------------------------| 
 
 
                                                           PM----------| 
  Q   Q  Q   E E   +Q    Q   Q   Q    Q   Q  Q   E E   +E  E E E E E E E 
|----------------|------------------|----------------|-------------------| 
|----------------|------------------|----------------|-------------------| 
|-9------8-----9-|-(9)------12------|-9------8-----9-|-(9)---------------| 
|-9--10--8--10-9-|-(9)--10--12--12--|-9--10--8--10-9-|-(9)---------------| 
|-7--10--6--10-7-|-(7)--10--10--12--|-7--10--6--10-7-|-(7)-2-3-2-2-2-3-2-| 
|-----8------8---|-------8------10--|-----8------8---|-----0-1-0-3-0-1-0-| 
 
 
  Q   Q  Q   E E   +Q    Q   Q   Q    Q   Q  Q   E E   +E  S E H    E. 
|----------------|------------------|----------------|-----------------| 
|----------------|------------------|----------------|-----------------| 
|-9------8-----9-|-(9)------12------|-9------8-----9-|-(9)---7-5-------| 
|-9--10--8--10-9-|-(9)--10--12--12--|-9--10--8--10-9-|-(9)---7-5-------| 
|-7--10--6--10-7-|-(7)--10--10--12--|-7--10--6--10-7-|-(7)---5-3-------| 
|-----8------8---|-------8------10--|-----8------8---|-----------------| 
 
 
     E E E  E  E  E E  E    E E E  E  E  E E  E 
||-----------------------|----------------------| 
||o----------------------|----------------------| 
||--11-9-9-11-12-11-9-11-|-11-9-9-11-12-11-9-11-| 
||-----------------------|----------------------| 
||o----------------------|----------------------| 
||-----------------------|----------------------| 
| 
|   Gtr II 
|      PM|     PM|     PM     PM|     PM|     PM 
|    E E E  E  E  E E  E    E E E  E  E  E E  E 
||-----------------------|----------------------| 
||o----------------------|----------------------| 
||---7------7-------9----|--7------7-------9----| 
||---7------7-------9----|--7------7-------9----| 
||o--5-5-5--5--7--7-7--7-|--5-5-5--5--7--7-7--7-| 
||-----------------------|----------------------| 
 
 
  1. 
  PM---------------------------------------------------------------------| 
  S S S S S S  S  S S S S S S S  S  S   S S S S S S  S  S S S S S S S  S  S 
|-------------------------------------|--------------------------------------|| 
|-------------------------------------|-------------------------------------o|| 
|-------------------------------------|--------------------------------------|| 
|-7-7-7-7-7-7-12-12-9-9-9-9-9-9-12-12-|-7-7-7-7-7-7-12-12-9-9-9-9-9-9-12-12--|| 
|-------------------------------------|-------------------------------------o|| 
|-------------------------------------|--------------------------------------|| 
| 
| PM---------------------------------------------------------------------| 
| S S S S S S  S  S S S S S S S  S  S   S S S S S S  S  S S S S S S S  S  S 
|-------------------------------------|--------------------------------------|| 
|-------------------------------------|-------------------------------------o|| 
|-------------------------------------|--------------------------------------|| 
|-------------------------------------|--------------------------------------|| 
|-5-5-5-5-5-5--5--5-7-7-7-7-7-7--7--7-|-5-5-5-5-5-5--5--5-7-7-7-7-7-7--7--7-o|| 
|-------------------------------------|--------------------------------------|| 
 
 
  2. 
  PM--------------------------------------------------------------| 
  S S S S S S S S S S S S S S S S   S S S S S S S S S S S S S S S S 
|---------------------------------|---------------------------------| 
|---------------------------------|---------------------------------| 
|-------------7-7-------------7-7-|-------------7-7-------------7-7-| 
|-5-5-5-5-5-5-----7-7-7-7-7-7-----|-5-5-5-5-5-5-----7-7-7-7-7-7-----| 
|---------------------------------|---------------------------------| 
|---------------------------------|---------------------------------| 
| 
| PM--------------------------------------------------------------| 
| S S S S S S S S S S S S S S S S   S S S S S S S S S S S S S S S S 
|---------------------------------|---------------------------------| 
|---------------------------------|---------------------------------| 
|---------------------------------|---------------------------------| 
|---------------------------------|---------------------------------| 
|-3-3-3-3-3-3-3-3-5-5-5-5-5-5-5-5-|-3-3-3-3-3-3-3-3-5-5-5-5-5-5-5-5-| 
|---------------------------------|---------------------------------| 
 
 
  E E E  Q.   Q     E  E  E  Q.   Q    E E E  Q.   Q    E E Q  E E Q 
|----------------|-------------------|----------------|---------------| 
|----------------|-------------------|----------------|-8-8-8---------| 
|-7-7-7--5----5--|-10-10-10--7----7--|-7-7-7--5----5--|-5-5-5--5-5-5--| 
|-5-5-5--5----5--|--8--8--8--8----8--|-5-5-5--5----5--|--------3-3-3--| 
|----------------|-------------------|----------------|---------------| 
|----------------|-------------------|----------------|---------------| 
| 
| E E H.            E  E  H.           E E H.           E E Q  E E Q 
|----------------|-------------------|----------------|---------------| 
|----------------|-------------------|----------------|---------------| 
|----------------|--3--3-------------|----------------|-5-5-----------| 
|-5-5------------|--3--3-------------|-5-5------------|-5-5----3-3----| 
|-5-5------------|--1--1-------------|-5-5------------|-3-3----3-3----| 
|-3-3------------|-------------------|-3-3------------|--------1-1----| 
 
 
  E E E  Q.   Q     E  E  E  Q.   Q 
|----------------|-------------------| 
|----------------|-------------------| 
|-7-7-7--5----5--|-10-10-10--7----7--| 
|-5-5-5--5----5--|--8--8--8--8----8--| 
|----------------|-------------------| 
|----------------|-------------------| 
| 
| E E H.            E  E  H. 
|----------------|-------------------| 
|----------------|-------------------| 
|----------------|-------------------| 
|-5-5------------|--8--8-------------| 
|-5-5------------|--8--8-------------| 
|-3-3------------|--6--6-------------| 
 
 
   E  E  E  Q.   Q     E  E   E   E  +H 
|-------------------|-----------------------| 
|-10-10-10--8----8--|-13-13--13--10-(10)----| 
|--7--7--7--7----7--|-10-10--10--10-(10)----| 
|-------------------|-----------------------| 
|-------------------|-----------------------| 
|-------------------|-----------------------| 
| 
|  E  E  H.            E  E  +H. 
|-------------------|-----------------------| 
|-------------------|-----------------------| 
|--7--7-------------|-10-10-(10)------------| 
|--7--7-------------|-10-10-(10)------------| 
|--5--5-------------|--8--8--(8)------------| 
|-------------------|-----------------------| 
 
 
     E  E  E  E  E  E  E  E    E  E  E  E  E  E  E  E 
||--------------------------|-------------------------| 
||o-15----------------------|-18----------------------| 
||-----12-12-12-12-12-12-12-|----15-15-15-15-15-15-15-| 
||--------------------------|-------------------------| 
||o-------------------------|-------------------------| 
||--------------------------|-------------------------| 
| 
|    W                         W 
||--------------------------|-------------------------| 
||o-------------------------|-------------------------| 
||--------------------------|--3----------------------| 
||---5----------------------|--3----------------------| 
||o--5----------------------|--1----------------------| 
||---3----------------------|-------------------------| 
| 
|   Gtr III 
|    E  E  E  E  E  E  E  E    E  E  E  E  E  E  E  E 
||--------------------------|-------------------------| 
||o-------------------------|-------------------------| 
||---7--0--3--0--7--0--3--0-|-10--0--7--0-10--0--7--0-| 
||--------------------------|-------------------------| 
||o-------------------------|-------------------------| 
||--------------------------|-------------------------| 
 
 
   E  E  E  E  E  E  E  E    E  E  E  E  E  E  E  E 
|-------------------------|-15-------------15----13-| 
|-15----------------------|----13-13-13-15----15----| 
|----12-12-12-12-12-12-12-|-------------------------| 
|-------------------------|-------------------------| 
|-------------------------|-------------------------| 
|-------------------------|-------------------------| 
| 
|  W                         H           H 
|-------------------------|-------------------------| 
|-------------------------|-------------------------| 
|-------------------------|--5----------------------| 
|--5----------------------|--5-----------3----------| 
|--5----------------------|--3-----------3----------| 
|--3----------------------|--------------1----------| 
| 
|  E  E  E  E  E  E  E  E    E  E  E  E  E  E  E  E 
|-------------------------|-------------------------| 
|-------------------------|-------------------------| 
|--7--0--3--0--7--0--3--0-|--5--0--8--0--5--0--2--0-| 
|-------------------------|-------------------------| 
|-------------------------|-------------------------| 
|-------------------------|-------------------------| 
 
 
   E  E  E  E  E  E  E  E    E  E  E  E  E  E  E  E 
|-------------------------|-------------------------| 
|-15----------------------|-18----------------------| 
|----12-12-12-12-12-12-12-|----15-15-15-15-15-15-15-| 
|-------------------------|-------------------------| 
|-------------------------|-------------------------| 
|-------------------------|-------------------------| 
| 
|  W                         W 
|-------------------------|-------------------------| 
|-------------------------|-------------------------| 
|-------------------------|--3----------------------| 
|--5----------------------|--3----------------------| 
|--5----------------------|--1----------------------| 
|--3----------------------|-------------------------| 
| 
|  E  E  E  E  E  E  E  E    E  E  E  E  E  E  E  E 
|-------------------------|-------------------------| 
|-------------------------|-------------------------| 
|--7--0--3--0--7--0--3--0-|-10--0--7--0-10--0--7--0-| 
|-------------------------|-------------------------| 
|-------------------------|-------------------------| 
|-------------------------|-------------------------| 
 
 
   E  E  E  E  E  E  E  E    H         H 
|-17----------------------|-----------20-----|| 
|----15-15-15-15-15-15-15-|-18--------------o|| 
|-------------------------|------------------|| 
|-------------------------|------------------|| 
|-------------------------|-----------------o|| 
|-------------------------|------------------|| 
| 
|  W                         W 
|-------------------------|------------------|| 
|-------------------------|-----------------o|| 
|--7----------------------|-10---------------|| 
|--7----------------------|-10---------------|| 
|--5----------------------|--8--------------o|| 
|-------------------------|------------------|| 
| 
|  E  E  E  E  E  E  E  E    E E  E E  H 
|-------------------------|------------------|| 
|-------------------------|-----------------o|| 
|-14--0-10--0-14--0-10--0-|-17-0-14-0-17-----|| 
|-------------------------|------------------|| 
|-------------------------|-----------------o|| 
|-------------------------|------------------|| 
 
 
    E E E E E E E E   E E E E E E E E  4x 
||------------------|------------------|| 
||o-----8-----------|---------------8-o|| 
||--0-0---8-0-0-8-7-|-0-6-7-8-6-7-8----|| 
||------------------|------------------|| 
||o-----------------|-----------------o|| 
||------------------|------------------|| 
 
 
   Q   Q   Q   E  E    +Q    Q   Q   Q 
|-------------------|-------------------| 
|-------------------|-------------------| 
|-12------11-----12-|-(12)------15------| 
|-12--13--11--13-12-|-(12)--13--15--15--| 
|-10--13---9--13-10-|-(10)--13--13--15--| 
|-----11------11----|-------11------13--| 
 
 
                           PM----------| 
   Q   Q   Q   E  E    +E  E E E E E E E 
|-------------------|--------------------| 
|-------------------|--------------------| 
|-12------11-----12-|-(12)---------------| 
|-12--13--11--13-12-|-(12)---------------| 
|-10--13---9--13-10-|-(10)-5-6-5-5-5-6-5-| 
|-----11------11----|------3-4-3-6-3-4-3-| 
 
 
   Q   Q   Q   E  E    +Q    Q   Q   Q 
|-------------------|-------------------| 
|-------------------|-------------------| 
|-12------11-----12-|-(12)------15------| 
|-12--13--11--13-12-|-(12)--13--15--15--| 
|-10--13---9--13-10-|-(10)--13--13--15--| 
|-----11------11----|-------11------13--| 
 
 
   Q   Q   Q   E  E    +E  S  E H    E. 
|-------------------|-------------------| 
|-------------------|-------------------| 
|-12------11-----12-|-(12)---10-8-------| 
|-12--13--11--13-12-|-(12)---10-8-------| 
|-10--13---9--13-10-|-(10)----8-6-------| 
|-----11------11----|-------------------| 
 
 
     E E E  E  E  E E  E    E E E  E  E  E E  E 
||-----------------------|----------------------| 
||o----------------------|----------------------| 
||--11-9-9-11-12-11-9-11-|-11-9-9-11-12-11-9-11-| 
||-----------------------|----------------------| 
||o----------------------|----------------------| 
||-----------------------|----------------------| 
| 
|   Gtr II 
|      PM|     PM|     PM     PM|     PM|     PM 
|    E E E  E  E  E E  E    E E E  E  E  E E  E 
||-----------------------|----------------------| 
||o----------------------|----------------------| 
||---7------7-------9----|--7------7-------9----| 
||---7------7-------9----|--7------7-------9----| 
||o--5-5-5--5--7--7-7--7-|--5-5-5--5--7--7-7--7-| 
||-----------------------|----------------------| 
 
 
  1. 
  PM---------------------------------------------------------------------| 
  S S S S S S  S  S S S S S S S  S  S   S S S S S S  S  S S S S S S S  S  S 
|-------------------------------------|--------------------------------------|| 
|-------------------------------------|-------------------------------------o|| 
|-------------------------------------|--------------------------------------|| 
|-7-7-7-7-7-7-12-12-9-9-9-9-9-9-12-12-|-7-7-7-7-7-7-12-12-9-9-9-9-9-9-12-12--|| 
|-------------------------------------|-------------------------------------o|| 
|-------------------------------------|--------------------------------------|| 
| 
| PM---------------------------------------------------------------------| 
| S S S S S S  S  S S S S S S S  S  S   S S S S S S  S  S S S S S S S  S  S 
|-------------------------------------|--------------------------------------|| 
|-------------------------------------|-------------------------------------o|| 
|-------------------------------------|--------------------------------------|| 
|-------------------------------------|--------------------------------------|| 
|-5-5-5-5-5-5--5--5-7-7-7-7-7-7--7--7-|-5-5-5-5-5-5--5--5-7-7-7-7-7-7--7--7-o|| 
|-------------------------------------|--------------------------------------|| 
 
 
  2. 
  PM--------------------------------------------------------------| 
  S S S S S S S S S S S S S S S S   S S S S S S S S S S S S S S S S 
|---------------------------------|---------------------------------| 
|---------------------------------|---------------------------------| 
|-------------7-7-------------7-7-|-------------7-7-------------7-7-| 
|-5-5-5-5-5-5-----7-7-7-7-7-7-----|-5-5-5-5-5-5-----7-7-7-7-7-7-----| 
|---------------------------------|---------------------------------| 
|---------------------------------|---------------------------------| 
| 
| PM--------------------------------------------------------------| 
| S S S S S S S S S S S S S S S S   S S S S S S S S S S S S S S S S 
|---------------------------------|---------------------------------| 
|---------------------------------|---------------------------------| 
|---------------------------------|---------------------------------| 
|---------------------------------|---------------------------------| 
|-3-3-3-3-3-3-3-3-5-5-5-5-5-5-5-5-|-3-3-3-3-3-3-3-3-5-5-5-5-5-5-5-5-| 
|---------------------------------|---------------------------------| 
 
 
     E E E  E  E  E E  E    E  E  E  E  E  E  E  E 
||-----------------------|-------------------------| 
||o----------------------|-------------------------| 
||--11-9-9-11-12-11-9-11-|-14-12-11-12-16-14-12-14-| 
||-----------------------|-------------------------| 
||o----------------------|-------------------------| 
||-----------------------|-------------------------| 
| 
|    H         H            H           H 
||-----------------------|-------------------------| 
||o----------------------|-------------------------| 
||---7---------9---------|--7-----------9----------| 
||---7---------9---------|--7-----------9----------| 
||o--5---------7---------|--5-----------7----------| 
||-----------------------|-------------------------| 
 
 
  1. 
  PM---------------------------------------------------------------------| 
  S S S S S S  S  S S S S S S S  S  S   S S S S S S  S  S S S S S S S  S  S 
|-------------------------------------|--------------------------------------|| 
|-------------------------------------|-------------------------------------o|| 
|-------------------------------------|--------------------------------------|| 
|-7-7-7-7-7-7-12-12-9-9-9-9-9-9-12-12-|-7-7-7-7-7-7-12-12-9-9-9-9-9-9-12-12--|| 
|-------------------------------------|-------------------------------------o|| 
|-------------------------------------|--------------------------------------|| 
| 
| PM---------------------------------------------------------------------| 
| S S S S S S  S  S S S S S S S  S  S   S S S S S S  S  S S S S S S S  S  S 
|-------------------------------------|--------------------------------------|| 
|-------------------------------------|-------------------------------------o|| 
|-------------------------------------|--------------------------------------|| 
|-------------------------------------|--------------------------------------|| 
|-5-5-5-5-5-5--5--5-7-7-7-7-7-7--7--7-|-5-5-5-5-5-5--5--5-7-7-7-7-7-7--7--7-o|| 
|-------------------------------------|--------------------------------------|| 
 
 
  2. 
  PM----------------------------| 
  S S S S S S S S S S S S S S S S   E E Q  E E Q 
|---------------------------------|---------------| 
|---------------------------------|---------------| 
|-------------7-7-------------7-7-|---------------| 
|-5-5-5-5-5-5-----7-7-7-7-7-7-----|-5-5----7-7----| 
|---------------------------------|---------------| 
|---------------------------------|---------------| 
| 
| PM----------------------------| 
| S S S S S S S S S S S S S S S S   E E Q  E E Q 
|---------------------------------|---------------| 
|---------------------------------|---------------| 
|---------------------------------|-5-5----7-7----| 
|---------------------------------|-5-5----7-7----| 
|-3-3-3-3-3-3-3-3-5-5-5-5-5-5-5-5-|-3-3----5-5----| 
|---------------------------------|---------------| 
 
 
  PM------------------------------------------------------------------| 
  E E E E E E E E   E E E E E E E E   E E E E E E E E   E E E E E E E E 
|-----------------|-----------------|-----------------|-----------------| 
|-----------------|-----------------|-----------------|-----------------| 
|-----------------|-----------------|-----------------|-----------------| 
|-----------------|-----------------|-----------------|-----------------| 
|-9-9-9-9-9-9-9-9-|-9-9-9-9-9-9-9-9-|-9-9-9-9-9-9-9-9-|-9-9-9-9-9-9-9-9-| 
|-----------------|-----------------|-----------------|-----------------| 
 
 
  PM----------------------------------------- 
  E E E E  E  E  E  E    E  E  E  E E E E E 
|---------------------|---------------------| 
|---------------------|---------------------| 
|---------------------|---------------------| 
|---------------------|---------------------| 
|-9-9-9-9-------------|-12-12-12-12-7-7-7-7-| 
|---------10-10-10-10-|---------------------| 
 
 
 ------------------| 
  E E E E  E  E  E  E   E E E E Q  E E 
|---------------------|----------------| 
|---------------------|----------------| 
|---------------------|-9-9-7-6--------| 
|---------------------|---------9--7-6-| 
|-9-9-9-9-------------|----------------| 
|---------10-10-10-10-|----------------| 
 
 
     E  E  E  E  E  E  E  E    E  E  E  E  E  E  E  E  4x 
||--------------------------|--------------------------|| 
||o-16----12-16-17----12-17-|-16----12-16-14----12-14-o|| 
||-----13----------13-------|----13----------13--------|| 
||--------------------------|--------------------------|| 
||o-------------------------|-------------------------o|| 
||--------------------------|--------------------------|| 
| 
|   Gtr II 
|    H           H             H           H           4x 
||--------------------------|--------------------------|| 
||o-------------------------|-------------------------o|| 
||---8----------------------|-11-----------------------|| 
||---8-----------9----------|-11----------11-----------|| 
||o--6-----------9----------|--9----------11----------o|| 
||---------------7----------|--------------9-----------|| 
 
 
  Q  Q  Q  Q    Q  Q  Q  Q    E q  E q  Q 
|-------------|-------------|--------------| 
|-------------|-------------|--------------| 
|-------------|-------------|--------------| 
|-6--5--4--3--|-6--5--4--3--|--------------| 
|-6--5--4--3--|-6--5--4--3--|-6-6--6-6--7--| 
|-4--3--2--1--|-4--3--2--1--|-4-4--4-4--5--| 
 
 
                       PM| 
    W          H.      E E   W          Q  S S S S S S S S S S S S 
||-----------|-------------|----------|-------------------------------|| 
||o----------|-------------|----------|------------------------------o|| 
||-----------|-------------|----------|----7h8p7h8--------------------|| 
||--6--------|-7-----------|-6--------|-7----------6h7p6h7------------|| 
||o-6--------|-7-----------|-6--------|-7------------------5h6p5h6---o|| 
||--4--------|-5-------7-5-|-4--------|-5-----------------------------|| 
 
 
  W 
|------| 
|------| 
|------| 
|------| 
|------| 
|------| 
 
 
  S  S  S   S S  S S S S  S S S S S S S 
|----------------------6-10-8-6-5-8-6-5-| 
|-8-11-10---8-6-10-8-6------------------| 
|---------------------------------------| 
|---------------------------------------| 
|---------------------------------------| 
|---------------------------------------| 
| 
| Gtr II 
| E     H.. 
|---------------------------------------| 
|---------------------------------------| 
|---------------------------------------| 
|-5-------------------------------------| 
|-5-------------------------------------| 
|-3-------------------------------------| 
 
 
  S  S  S   S  S  S  S S  S S  S  S S  S  S S 
|-----------8-10-11-10-8-10-8-------8---------| 
|-8-10-11---------------------11-10---11-10-8-| 
|---------------------------------------------| 
|---------------------------------------------| 
|---------------------------------------------| 
|---------------------------------------------| 
| 
| E     H.. 
|---------------------------------------------| 
|---------------------------------------------| 
|---------------------------------------------| 
|-5-------------------------------------------| 
|-5-------------------------------------------| 
|-3-------------------------------------------| 
 
 
    S  S  S S S  S S S S  S S S S S S S 
||---------------------6-10-8-6-5-8-6-5-| 
||o-8-11-10-8-6-10-8-6------------------| 
||--------------------------------------| 
||--------------------------------------| 
||o-------------------------------------| 
||--------------------------------------| 
| 
|   Q         Q        Q        Q 
||--------------------------------------| 
||o-------------------------------------| 
||---------------------3----------------| 
||--5---------1--------3--------3-------| 
||o-5---------1--------1--------3-------| 
||--3---------------------------1-------| 
 
 
  S  S  S S S  S S S S  S S S S S S S 
|--------------------6-10-8-6-5-8-6-5---|| 
|-8-11-10-8-6-10-8-6-------------------o|| 
|---------------------------------------|| 
|---------------------------------------|| 
|--------------------------------------o|| 
|---------------------------------------|| 
| 
| Q         Q        Q        Q 
|---------------------------------------|| 
|--------------------------------------o|| 
|--------------------3------------------|| 
|-5---------1--------3--------3---------|| 
|-5---------1--------1--------3--------o|| 
|-3---------------------------1---------|| 
 
 
  \2____________________________________|                      /3__________| 
                  |-3-| |-3-| |-3-| |-3-| 
  W               E E E E E E E E E E E E         W            H.          Q 
|---------------|-------------------------|-----------------|------------------| 
|-8-------------|-5-8-5-8-5-8-5-8-5-8-5-8-|-----------------|------------------| 
|---------------|-------------------------|-----------------|-<5>---------<5>--| 
|---------------|-------------------------|-----------------|------------------| 
|---------------|-------------------------|-----------------|------------------| 
|---------------|-------------------------|-----------------|------------------| 
| 
|                                           PM------------| 
| Q    Q  Q  Q    Q   Q   Q   Q             E E E E E E E E    Q    Q  Q   Q 
|---------------|-------------------------|-----------------|------------------| 
|---------------|-------------------------|-----------------|------------------| 
|---------------|-------------------------|-----------------|----------3-------| 
|-5----4--3--2--|-5---4---3---2-----------|-----------------|--5----1--3---3---| 
|-5----4--3--2--|-5---4---3---2-----------|-5-4-3-2-5-4-3-2-|--5----1--1---3---| 
|-3----2--1--0--|-3---2---1---0-----------|-3-2-1-0-3-2-1-0-|--3-----------1---| 
 
 
  E E E  Q.   Q     E  E  E  Q.   Q    E E E  Q.   Q    E E Q  E E Q 
|----------------|-------------------|----------------|---------------| 
|----------------|-------------------|----------------|-8-8-8---------| 
|-7-7-7--5----5--|-10-10-10--7----7--|-7-7-7--5----5--|-5-5-5--5-5-5--| 
|-5-5-5--5----5--|--8--8--8--8----8--|-5-5-5--5----5--|--------3-3-3--| 
|----------------|-------------------|----------------|---------------| 
|----------------|-------------------|----------------|---------------| 
| 
| Gtr II 
| E E H.            E  E  H.           E E H.           E E Q  E E Q 
|----------------|-------------------|----------------|---------------| 
|----------------|-------------------|----------------|---------------| 
|----------------|--3--3-------------|----------------|-5-5-----------| 
|-5-5------------|--3--3-------------|-5-5------------|-5-5----3-3----| 
|-5-5------------|--1--1-------------|-5-5------------|-3-3----3-3----| 
|-3-3------------|-------------------|-3-3------------|--------1-1----| 
 
 
  E E E  Q.   Q     E  E  E  Q.   Q 
|----------------|-------------------| 
|----------------|-------------------| 
|-7-7-7--5----5--|-10-10-10--7----7--| 
|-5-5-5--5----5--|--8--8--8--8----8--| 
|----------------|-------------------| 
|----------------|-------------------| 
| 
| E E H.            E  E  H. 
|----------------|-------------------| 
|----------------|-------------------| 
|----------------|-------------------| 
|-5-5------------|--8--8-------------| 
|-5-5------------|--8--8-------------| 
|-3-3------------|--6--6-------------| 
 
 
   E  E  E  Q.   Q     E  E   E   E  +H 
|-------------------|-----------------------| 
|-10-10-10--8----8--|-13-13--13--10-(10)----| 
|--7--7--7--7----7--|-10-10--10--10-(10)----| 
|-------------------|-----------------------| 
|-------------------|-----------------------| 
|-------------------|-----------------------| 
| 
|  E  E  H.            E  E  +H. 
|-------------------|-----------------------| 
|-------------------|-----------------------| 
|--7--7-------------|-10-10-(10)------------| 
|--7--7-------------|-10-10-(10)------------| 
|--5--5-------------|--8--8--(8)------------| 
|-------------------|-----------------------| 
 
 
     E  E  E  E  E  E  E  E    E  E  E  E  E  E  E  E 
||--------------------------|-------------------------| 
||o-15----------------------|-18----------------------| 
||-----12-12-12-12-12-12-12-|----15-15-15-15-15-15-15-| 
||--------------------------|-------------------------| 
||o-------------------------|-------------------------| 
||--------------------------|-------------------------| 
| 
|    W                         W 
||--------------------------|-------------------------| 
||o-------------------------|-------------------------| 
||--------------------------|--3----------------------| 
||---5----------------------|--3----------------------| 
||o--5----------------------|--1----------------------| 
||---3----------------------|-------------------------| 
| 
|   Gtr III 
|    E  E  E  E  E  E  E  E    E  E  E  E  E  E  E  E 
||--------------------------|-------------------------| 
||o-------------------------|-------------------------| 
||---7--0--3--0--7--0--3--0-|-10--0--7--0-10--0--7--0-| 
||--------------------------|-------------------------| 
||o-------------------------|-------------------------| 
||--------------------------|-------------------------| 
 
 
   E  E  E  E  E  E  E  E    E  E  E  E  E  E  E  E 
|-------------------------|-15-------------15----13-| 
|-15----------------------|----13-13-13-15----15----| 
|----12-12-12-12-12-12-12-|-------------------------| 
|-------------------------|-------------------------| 
|-------------------------|-------------------------| 
|-------------------------|-------------------------| 
| 
|  W                         H           H 
|-------------------------|-------------------------| 
|-------------------------|-------------------------| 
|-------------------------|--5----------------------| 
|--5----------------------|--5-----------3----------| 
|--5----------------------|--3-----------3----------| 
|--3----------------------|--------------1----------| 
| 
|  E  E  E  E  E  E  E  E    E  E  E  E  E  E  E  E 
|-------------------------|-------------------------| 
|-------------------------|-------------------------| 
|--7--0--3--0--7--0--3--0-|--5--0--8--0--5--0--2--0-| 
|-------------------------|-------------------------| 
|-------------------------|-------------------------| 
|-------------------------|-------------------------| 
 
 
   E  E  E  E  E  E  E  E    E  E  E  E  E  E  E  E 
|-------------------------|-------------------------| 
|-15----------------------|-18----------------------| 
|----12-12-12-12-12-12-12-|----15-15-15-15-15-15-15-| 
|-------------------------|-------------------------| 
|-------------------------|-------------------------| 
|-------------------------|-------------------------| 
| 
|  W                         W 
|-------------------------|-------------------------| 
|-------------------------|-------------------------| 
|-------------------------|--3----------------------| 
|--5----------------------|--3----------------------| 
|--5----------------------|--1----------------------| 
|--3----------------------|-------------------------| 
| 
|  E  E  E  E  E  E  E  E    E  E  E  E  E  E  E  E 
|-------------------------|-------------------------| 
|-------------------------|-------------------------| 
|--7--0--3--0--7--0--3--0-|-10--0--7--0-10--0--7--0-| 
|-------------------------|-------------------------| 
|-------------------------|-------------------------| 
|-------------------------|-------------------------| 
 
 
   E  E  E  E  E  E  E  E    H         H 
|-17----------------------|-----------20-----|| 
|----15-15-15-15-15-15-15-|-18--------------o|| 
|-------------------------|------------------|| 
|-------------------------|------------------|| 
|-------------------------|-----------------o|| 
|-------------------------|------------------|| 
| 
|  W                         W 
|-------------------------|------------------|| 
|-------------------------|-----------------o|| 
|--7----------------------|-10---------------|| 
|--7----------------------|-10---------------|| 
|--5----------------------|--8--------------o|| 
|-------------------------|------------------|| 
| 
|  E  E  E  E  E  E  E  E    E E  E E  H 
|-------------------------|------------------|| 
|-------------------------|-----------------o|| 
|-14--0-10--0-14--0-10--0-|-17-0-14-0-17-----|| 
|-------------------------|------------------|| 
|-------------------------|-----------------o|| 
|-------------------------|------------------|| 
 
 
                              PM------------| 
  Q  Q  Q  Q    Q  Q  Q  Q    E E E E E E E E   E q  E q  Q 
|-------------|-------------|-----------------|--------------| 
|-------------|-------------|-----------------|--------------| 
|-------------|-------------|-----------------|--------------| 
|-5--4--3--2--|-5--4--3--2--|-----------------|--------------| 
|-5--4--3--2--|-5--4--3--2--|-5-4-3-2-5-4-3-2-|-5-5--5-5--6--| 
|-3--2--1--0--|-3--2--1--0--|-3-2-1-0-3-2-1-0-|-3-3--3-3--4--| 
 
 
  q  S S S S S S S S S S S S   q  H. 
|----------------------------|----------*| 
|----------------------------|----------*| 
|----6h7p6h7-----------------|-7--------*| 
|-5----------5h6p5h6---------|-5--------*| 
|-5------------------4h5p4h5-|-5--------*| 
|-3--------------------------|-3--------*| 
 
share this page

See Also: