E-Chords
Children Of Bodom

Dead Mans Hand On You(Tabs)

Children Of Bodom

roll up this ad to continue


Riff 1: 

D|-------------------------------------------------| 
A|-------------------------------------------------| 
F|--------0-----------0-----------0----------------| 
G|-----7-----7-----7-----7-----7-----7-----7\5-----| 
C|--5-----------5-----------5-----------5-------3--| 
D|-------------------------------------------------| 

Riff 2: 

D|----------------------------------------------------| 
A|-------------------------------------------------0--| 
F|--------0-----------0------------0------------5-----| 
G|-----7-----7-----7-----7-----10-----10-----7--------| 
C|--5-----------5-----------8-------------7-----------| 
D|----------------------------------------------------| 

Riff 3: 

D|--------------------------------------------------| 
A|--------------------------------------------------| 
F|--------------5--------------------5--------------| 
G|-----------7-----8--7--5--7-----7-----7-----5--5--| 
C|--5--7--8--------------------8-----------7--------| 
D|--------------------------------------------------| 

Riff 4: 

D|--------------------------------------------------| 
A|-----------------------------------5-----------5--| 
F|--------------5-----------5-----5-----5-----5-----| 
G|-----------7-----8--7--8-----7-----------7--------| 
C|--5--7--8-----------------------------------------| 
D|--------------------------------------------------| 
share this page

See Also: