E-Chords
Children Of Bodom

Cry Of The Nihilist (solo)(Tabs)

Children Of Bodom

roll up this ad to continue

Key: E
D|--------5--8--7--8--5-----------5--8/10p7----------| 
A|-----6-----------------6-----6-------------8-------| 
F|--5-----------------------5-------------------7----| 
C|---------------------------------------------------| 
G|---------------------------------------------------| 
D|---------------------------------------------------| 

D|--------5--8--7--8--5-----------5--8/10p7----------| 
A|-----6-----------------6-----6-------------8-------| 
F|--5-----------------------5-------------------7----| 
C|---------------------------------------------------| 
G|---------------------------------------------------| 
D|---------------------------------------------------| 

D|---------8--12\10p7----------------12--15\10p7--------| 
A|-----10--------------8---------13---------------8-----| 
F|--9---------------------7--12----------------------7--| 
C|------------------------------------------------------| 
G|------------------------------------------------------| 
D|------------------------------------------------------| 

D|---------8--12\7p3----------------12--15\10p7---------| 
A|-----10-------------5---------13---------------8------| 
F|--9--------------------4--12----------------------7---| 
C|------------------------------------------------------| 
G|------------------------------------------------------| 
D|------------------------------------------------------| 

Repeat Previous Section Again 

D|--8p5-----5p2-----10p7-----7p4-------| 
A|-------6-------3--------8-------5----| 
F|-----------------------------------4-| 
C|-------------------------------------| 
G|-------------------------------------| 
D|-------------------------------------| 

D|----------------------------------------------------------------------| 
A|----------------------------------------------------------------------| 
F|--14--14----------12--12----------------------------------------------| 
C|----------12--12----------13--13----------12--12----------------------| 
G|----------------------------------15--15----------15--15--------------| 
D|----------------------------------------------------------------------| 

D|----------------------------------------------------------------------| 
A|----------------------------------------------------------------------| 
F|----------------------------------------------------------------------| 
C|--7--7--------5--5----------------------------7--\---/--\---/--\------| 
G|--------5--5--------6--6--------5--5----------7---\-/----\-/----\-----| 
D|--------------------------8--8--------8--8----5----v------v------\----| 


D|-----------------------------------------------| 
A|-----------------------------------------------| 
F|-----------------------------------------------| 
C|-----------------------------------------------| 
G|---------------------------5-------------------| 
D|--6--5--3--0-------------------6--5---0--------| 


Guitar Solo: 

D|---------------------------------------------------------15\----------| 
A|--\-/17--\-/16--\-/15----------------17\----15------------------------| 
F|---v------v------v-------15--14--12-------------15--14----------------| 
C|----------------------------------------------------------------------| 
G|----------------------------------------------------------------------| 
D|----------------------------------------------------------------------| 

D|--19p15--18p15--17p15--14h15p14p12-------------------------------------| 
A|-----------------------------------15--14--12~~~--14h15p14p12----------| 
F|---------------------------------------------------------------15--14--| 
C|-----------------------------------------------------------------------| 
G|-----------------------------------------------------------------------| 
D|-----------------------------------------------------------------------| 

D|--------------14------15-----14-----12--15t17p15p12h15p12--------------------| 
A|----------15----------------------------------------------h15t17p15p12h15p12-| 
F|--12~~~~----------12------12-----12------------------------------------------| 
C|-----------------------------------------------------------------------------| 
G|-----------------------------------------------------------------------------| 
D|-----------------------------------------------------------------------------| 

D|------------------------------------------------------------------------| 
A|------------------------------------------------------------------------| 
F|--h14t16p14p12---------------12h14t19p14p12h14p12h14t19p14p12h14--------| 
C|----------------14t17/19p14---------------------------------------------| 
G|------------------------------------------------------------------------| 
D|------------------------------------------------------------------------| 

D|---------------------------------------------------------------------| 
A|------------------------Hard--To--Hear-------------------------------| 
F|--15--14--12---------(----12----------)------------------------------| 
C|--------------14\----(-12----14p12h14-)--14--16--14--16--17--16--17--| 
G|-----------------\---------------------------------------------------| 
D|------------------\--------------------------------------------------| 

D|----------------------------------------------------------------------| 
A|--------------14--15--14-\--------------------------------------------| 
F|--14--16--17--------------\-Dive-Bomb---------------------------------| 
C|---------------------------\------------------------------------------| 
G|----------------------------------------------------------------------| 
D|----------------------------------------------------------------------| 


Standard tuning ( E A D G B E ) 

D|--------3--6--5--6--3-----------3--6/8p5-----------| 
A|-----4-----------------4-----4------------6--------| 
F|--3-----------------------3------------------5-----| 
C|---------------------------------------------------| 
G|---------------------------------------------------| 
D|---------------------------------------------------| 

D|--------3--6--5--6--3-----------3--6/8p5-----------| 
A|-----4-----------------4-----4------------6--------| 
F|--3-----------------------3------------------5-----| 
C|---------------------------------------------------| 
G|---------------------------------------------------| 
D|---------------------------------------------------| 

D|--------6--10\8p5----------------10--13\8p5----------| 
A|-----8-------------6---------11--------------6-------| 
F|--7-------------------5--10---------------------5----| 
C|-----------------------------------------------------| 
G|-----------------------------------------------------| 
D|-----------------------------------------------------| 

D|--------6--10\5p1----------------10--13\8p5----------| 
A|-----8-------------3---------11--------------6-------| 
F|--7-------------------2--10---------------------5----| 
C|-----------------------------------------------------| 
G|-----------------------------------------------------| 
D|-----------------------------------------------------| 

Repeat Previous Section Again 

D|--6p3-----3p0-----8p5-----5p2--------| 
A|-------4-------1-------6-------3-----| 
F|----------------------------------2--| 
C|-------------------------------------| 
G|-------------------------------------| 
D|-------------------------------------| 
  Or you can play it this way 
D|-------------------------------------------------| 
A|-------------------------------------------------| 
F|--15p12------12p9------17p14------14p11----------| 
C|---------13--------10---------15---------12------| 
G|---------------------------------------------12--| 
D|-------------------------------------------------| 

D|----------------------------------------------------------------------| 
A|----------------------------------------------------------------------| 
F|--12--12----------10--10----------------------------------------------| 
C|----------10--10----------11--11----------10--10----------------------| 
G|----------------------------------13--13----------13--13--------------| 
D|----------------------------------------------------------------------| 

D|----------------------------------------------------------------------| 
A|----------------------------------------------------------------------| 
F|----------------------------------------------------------------------| 
C|--5--5--------3--3----------------------------5--\---/--\---/--\------| 
G|--------3--3--------4--4--------3--3----------5---\-/----\-/----\-----| 
D|--------------------------6--6--------6--6----3----v------v------\----| 


 
D|-----------------------------------------------| 
A|-----------------------------------------------| 
F|-----------------------------------------------| 
C|---------------------------3-------------------| 
G|--4--3--1----------------------4--3------------| 
D|-----------3--------------------------3--------| 

Guitar Solo: 

D|---------------------------------------------------------13\----------| 
A|--\-/15--\-/14--\-/13----------------15\----13------------------------| 
F|---v------v------v-------13--12--10-------------13--12----------------| 
C|----------------------------------------------------------------------| 
G|----------------------------------------------------------------------| 
D|----------------------------------------------------------------------| 

D|--17p13--16p13--15p13--12h13p12p10-------------------------------------| 
A|-----------------------------------13--12--10~~~--12h13p12p10----------| 
F|---------------------------------------------------------------13--12--| 
C|-----------------------------------------------------------------------| 
G|-----------------------------------------------------------------------| 
D|-----------------------------------------------------------------------| 

D|--------------12------13-----12-----10--13t15p13p10h13p10--------------------| 
A|----------13----------------------------------------------h13t15p13p10h13p10-| 
F|--10~~~~----------10------10-----10------------------------------------------| 
C|-----------------------------------------------------------------------------| 
G|-----------------------------------------------------------------------------| 
D|-----------------------------------------------------------------------------| 

D|------------------------------------------------------------------------| 
A|------------------------------------------------------------------------| 
F|--h12t14p12p10---------------10h12t17p12p10h12p10h12t17p12p10h12--------| 
C|----------------12t15/17p12---------------------------------------------| 
G|------------------------------------------------------------------------| 
D|------------------------------------------------------------------------| 

D|---------------------------------------------------------------------| 
A|------------------------Hard--To--Hear-------------------------------| 
F|--13--12--10---------(----10----------)------------------------------| 
C|--------------12\----(-10----12p10h12-)--12--14--12--14--15--14--15--| 
G|-----------------\---------------------------------------------------| 
D|------------------\--------------------------------------------------| 

D|----------------------------------------------------------------------| 
A|--------------12--13--12-\--------------------------------------------| 
F|--12--14--15--------------\-Dive-Bomb---------------------------------| 
C|---------------------------\------------------------------------------| 
G|----------------------------------------------------------------------| 
D|----------------------------------------------------------------------| 
share this page

See Also: