E-Chords
Children Of Bodom

Aces High(Tabs)

Children Of Bodom

roll up this ad to continue

This is an Iron Maiden cover. It sounds the exact same as what maiden plays, just tuned down a full step. 
 
riff 1 - intro (x15) (both guitars) 
----------------| 
----------------| 
----------------| 
----4-6-4-7--6--| 
--7-------------| 
----------------| 
 
last time (16th time) 
----------------| 
----------------| 
----------------| 
--4----6--4-----| 
----7--------7--| 
----------------| 
 
riff 2 (x4)(both guitars) 
---------------|----------|---------------|-------------------| 
---------------|----------|---------------|-------------------| 
---------------|-5--5-----|---------------|--4-4-4--2---------| 
--7--5-7p5-7p5-|-------7--|--5--3-5p3-5p3-|-----------5p4p3---| 
---------------|----------|---------------|-------------------| 
---------------|----------|---------------|-------------------| 
 
riff 3a - verse riff#1 (both guitars) (x2) 
There goes the   si-ren that  warns of the  air raid 
---------------|-------------|-------------|--------------| 
---------------|-------------|-------------|--------------| 
---------------|-------------|-------------|--------------| 
--9----11---12-|-14-12---11--|--9---12--11-|-----11-------| 
--7----9----10-|-12-10---9---|--7---10--9--|-12--9----12--| 
---------------|-------------|-------------|-10-------10--| 
 
There comes the  sound of the  guns sending flak 
---------------|-------------|-------------|--------------| 
---------------|-------------|-------------|--------------| 
---------------|-------------|-------------|--------------| 
--9----11---12-|-14--12---11-|--9---12--11-|--------------| 
--7----9----10-|-12--10---9--|--7---10--9--|-12-----------| 
---------------|-------------|-------------|-10-----------| 
 
 
Verse riff 3b - Verse riff #2(both guitars): 
Jump   in  the   cockpit and  start up the  en gines. Re- 
---------------|-------------|-------------|--------------| 
---------------|-------------|-------------|--------------| 
---------------|-------------|-------------|--------------| 
--2----4----5--|-7---5----4--|--2---5---4--|-----4--------| 
--0----2----3--|-5---3----2--|--0---3---2--|-5---2----5---| 
---------------|-------------|-------------|-3--------3---| 
 
  move all the   whe blo ther   no time to   waste 
---------------|-------------|-------------|--------------| 
---------------|-------------|-------------|--------------|  
---------------|-------------|-------------|--------------|  
--2----4----5--|-7---5----4--|--2---5---4--|--------------| 
--0----2----3--|-5---3----2--|--0---3---2--|-5------------| 
---------------|-------------|-------------|-3------------| 
 
riff 4 - pre chorus riff 
   Running             scrambling 
-------------------|-------------------| 
-------------------|-------------------| 
-------------------|-------------------| 
-------------------|--5----------------| 
--5-7-7-7-7-7-7-7--|----7-7-7-7-7-7-7--| 
-------------------|-------------------| 
 
   flying 
-------------------|-------------------| 
-------------------|-------------------| 
-------------------|--5-4--------------| 
--7----------------|------7-5-7-5-4----| 
----7-7-7-7-7-7-7--|----------------5--| 
-------------------|-------------------| 
 
   Rolling             turning 
-------------------|-------------------| 
-------------------|-------------------| 
-------------------|-------------------| 
-------------------|--5----------------| 
--5-7-7-7-7-7-7-7--|----7-7-7-7-7-7-7--| 
-------------------|-------------------| 
 
 
   diving              going in again 
-------------------|-------------------| 
-------------------|-------------------| 
-------------------|--5-4--------------| 
--7----------------|------7-5-7--------| 
----7-7-7-7-7-7-7--|-------------------| 
-------------------|-------------------| 
 
riff 5 - chorus riff  
   Run          live to... 
|------------|--------------| 
|------------|--------------| 
|------------|--------------| 
|--9---------|--5-----7-----| 
|--7---------|--3-----5-----| 
|------------|--------------| 
 
...fly          fly to... 
|------------|--------------| 
|------------|--------------| 
|------------|--------------| 
|--9---------|--5-----7-----| 
|--7---------|--3-----5-----| 
|------------|--------------| 
 
...live         do or... 
|------------|--------------| 
|------------|--------------| 
|------------|--------------| 
|--9---------|--5-----7-----| 
|--7---------|--3-----5-----| 
|------------|--------------| 
 
...die          won?t you. 
|------------|--------------| 
|------------|--------------| 
|------------|--------------| 
|--9---------|--5-----7-----| 
|--7---------|--3-----5-----| 
|------------|--------------| 
 
   Run          live to... 
|------------|--------------| 
|------------|--------------| 
|------------|--------------| 
|--12--------|--8-----10----| 
|--10--------|--6-----8-----| 
|------------|--------------| 
 
...fly          fly to... 
|------------|--------------| 
|------------|--------------| 
|------------|--------------| 
|--12--------|--8-----10----| 
|--10--------|--6-----8-----| 
|------------|--------------| 
 
...live         Aces... 
|------------|--------------| 
|------------|--------------| 
|------------|--------------| 
|--12--------|--8-----10----| 
|--10--------|--6-----8-----| 
|------------|--------------| 
 
...high 
|------------|--------------| 
|------------|--------------| 
|------------|--------------| 
|--12--------|--8-----10----| 
|--10--------|--6-----8-----| 
|------------|--------------| 
 
 
riff 6 (x2) 
|--------------|---------------| 
|--------------|---------------| 
|--------------|---------------| 
|--------------|---------7--7--| 
|--0--3-3--0-0-|-3-2-0---5--5--| 
|--------------|-------2-------| 
 
|--------------|---------------| 
|--------------|---------------| 
|--------------|---------------| 
|--------------|---------2--2--| 
|--0--3-3--0-0-|-3-2-0---0--0--| 
|--------------|-------3-------| 
 
|--------------|---------------| 
|--------------|---------------| 
|--------------|---------------| 
|--------------|---------7--7--| 
|--0--3-3--0-0-|-3-2-0---5--5--| 
|--------------|-------2-------| 
 
|--------------|---------------| 
|--------------|---------------| 
|--------------|---------------|   
|--------------|---------2-----| 
|--0--3-3--0-0-|-3-2-0---0-----| 
|--------------|-------3-------| 
 
 Guitar during the keyboard solo 
 
|------------|--------------| 
|------------|--------------| 
|------------|--------------| 
|--9---------|--5-----7-----| 
|--7---------|--3-----5-----| 
|------------|--------------| 
 
|------------|--------------| 
|------------|--------------| 
|------------|--------------| 
|--9---------|--5-----7-----| 
|--7---------|--3-----5-----| 
|------------|--------------| 
 
|------------|--------------| 
|------------|--------------| 
|------------|--------------| 
|--9---------|--5-----7-----| 
|--7---------|--3-----5-----| 
|------------|--------------| 
 
|------------|--------------| 
|------------|--------------| 
|------------|--------------| 
|--9---------|--5-----7-----| 
|--7---------|--3-----5-----| 
|------------|--------------| 
 
|------------|--------------| 
|------------|--------------| 
|------------|--------------| 
|--12--------|--8-----10----| 
|--10--------|--6-----8-----| 
|------------|--------------| 
 
|------------|--------------| 
|------------|--------------| 
|------------|--------------| 
|--12--------|--8-----10----| 
|--10--------|--6-----8-----| 
|------------|--------------| 
 
|------------|--------------| 
|------------|--------------| 
|------------|--------------| 
|--12--------|--8-----10----| 
|--10--------|--6-----8-----| 
|------------|--------------| 
 
 
|------------|--------------| 
|------------|--------------| 
|------------|--------------| 
|--12--------|--8-----10----| 
|--10--------|--6-----8-----| 
|------------|--------------| 
 
                
---------------|----------|---------------|-------------------| 
---------------|----------|---------------|-------------------| 
---------------|-5--5-----|---------------|--4-4-4--2---------| 
--7--5-7p5-7p5-|-------7--|--5--3-5p3-5p3-|-----------5p4p3---| 
---------------|----------|---------------|-------------------| 
---------------|----------|---------------|-------------------| 
 
then the outro, 
---------------------|---------------------------------| 
---------------------|-----------------5---------------| 
---------------------|--4--7--7--7--7-----7--5--4p5p4--| 
--7---5--7--5--7--5--|---------------------------------| 
---------------------|---------------------------------| 
---------------------|---------------------------------| 
 
---------------------------------------------| 
--8---5p6p5-----5--6--5----------------------| 
-------------7-----------4--5-------------2--| 
------------------------------------------2--| 
------------------------------------------0--| 
---------------------------------------------| 
 
share this page

See Also: