E-Chords
Chelsea Grin

Calling In Silence (intro)(Tabs)

Chelsea Grin

roll up this ad to continue

e|---------------------------------------------------------------------------| 
B|---------------------------------------------------------------------------| 
G|---7h8p7-----7h8p7-----7h8p7-----7h8p7-------------------------------------| 
D|5h8-----8-5h8-----8-5h8-----8-5h8-----8------------------------------------| 
A|---------------------------------------------------------------------------| 
E|---------------------------------------------------------------------------| 

e|---------------------------------------------------------------------------| 
B|---------------------------------------------------------------------------| 
G|----8h11p8-------8h11p8-------8h11p8-------8h11p8--------------------------| 
D|7h10------10-7h10------10-7h10------10-7h10------10------------------------| 
A|---------------------------------------------------------------------------| 
E|---------------------------------------------------------------------------| 

e|---------------------------------------------------------------------------| 
B|---------------------------------------------------------------------------| 
G|---7h8p7-----7h8p7-----7h8p7-----7h8p7-------------------------------------| 
D|5h8-----8-5h8-----8-5h8-----8-5h8-----8------------------------------------| 
A|---------------------------------------------------------------------------| 
E|---------------------------------------------------------------------------| 

e|---------------------------------------------------------------------------| 
B|---------------------------------------------------------------------------| 
G|---5h7p5-----5h7p5-----5h8p5-----5h7p5-------------------------------------| 
D|4h7-----7-4h7-----7-4h7-----7-4h7-----7------------------------------------| 
A|---------------------------------------------------------------------------| 
E|---------------------------------------------------------------------------|  
share this page

See Also: