E-Chords
Chancho en Piedra

Voy y vuelvo(Tabs)

Chancho en Piedra

notas verso 
 
   nota 1         nota 2       nota 3 
e---11--------------9------------7----- 
b----8--------------6------------4----- 
g----8--------------6------------4----- 
d-------------------------------------- 
a-------------------------------------- 
e-------------------------------------- 
 
 
 
intro 
 nota 1 
 
verso 
 
   nota 1 
dime que te aleja, dime que me dejas, 
                                     nota 2 
dime que ocurrio, ¿quien detubo el reloj? 
                        nota 3       
¿quien seco nuestra ilucion? 
 
llevame hasta el cielo, vuelve aqui de nuevo, 
ya no somos 2, que abismo nos separo, 
desde hoy camino sin control 
 
 
pre-coro ( con distorcion) 
 
d-----------------5/7------7--7-7-7-7---- 
a---9-7-9---9-7-9------9----------------- 
 
 
coro 
 
hoy                   mi sombra se alejara 
e--------5---------------3----------------x--- 
b--------5---------------3----------------x--- 
g----7---7--------5------5----------------7--- 
d----7---7--------5------5----------------7--- 
a----5---5--------3------3----------------5--- 
e--------------------------------------------- 
 
      siguiendo el camino 
e--5-----------3----------------5--5-4-3------- 
b--5-----------3----------------5--5-4-3------- 
g--7-----5-----5----------------7--7-6-5------- 
d--7-----5-----5----------------7--7-6-5------- 
a--5-----3-----3----------------5--5-4-3------- 
e---------------------------------------------- 
 
  en un solo sentido mas!!!!!    luego el pre-coro 
e------------------5------ 
b------------------5------ 
g---5--------7-----7------ 
d---5--------7-----7------ 
a---3--------5-----5------ 
e------------------------- 
 
 
verso rap (con wha-wha) 
 
    la9         do     mi* 
e----7----------8------7---- 
b----5----------8------7---- 
g----6----------9------7---- 
d----7---------10------9---- 
a----7---------10----------- 
e----5----------8----------- 
 
  la9                      do 
es una pena hablar fuera de mi 
  la9                          do 
me parte el alma, saber que hoy cai 
  la9              do               mi* 
es algo nuevo para mi, ya np te siento aqui 
 
 
final 
 
    dom#     la    la#      fa    lam     sol    mi* 
e---4---------5-----6--------5-----5-------7-----7----- 
b---5---------5-----6--------6-----5-------8-----7----- 
g---6---------6-----7--------5-----5-------7-----7----- 
d---6---------7-----8--------7-----7-------9-----9----- 
a---4---------7-----8--------8-----7------10-----x----- 
e---4---------5-----6--------5-----5-------7-----x----- 
 
 
dom#-la-la#-fa 
 
lam     
voy y vuelvo de buen a mal tiempo 
sol 
ya lo sabes no soy perfecto 
fa  
no me preocupo al respecto 
mi* 
soy tan libre como el viento 
 
 
dom#                        la 
mi destino es de forma circular 
la#                   fa              
trato de separar madurez de seriedad 
lam                              sol 
me importa tanto la maldad como la bondad 
  fa                      mi* 
no todo lo que digo es verdad 
 
 
 

roll up this ad to continue

share this page

See Also: